Oops, an error
Loading. Please wait.

Nice Dream chords

version 3
version 3

Whole song

Interactive

67,316 views 78 this week
9 commentsread comments
1 2 3 4 5
x 44
add to favorites
×
Save as Personal and add changes to this tab that will be seen only by you. Learn more ›
×
You can save this tab as Personal to edit and correct it or add notes. All changes will be seen only by you. Learn more »
launch autoscroll
font size
0
reset
transpose
0
reset
simplify chords
display chords
guitar tuner
edit
Autoscroll
slow
fast
+/-
esc
set tempo
stop
Strumming
There is no strumming pattern for this song yet. and get +5 IQ
Radiohead
"Nice Dream"

Tabbed by: LUEicide
Info: >>>  X_Jetworld_X@yahoo.com  <<<

 Just so everyone knows, I decided to learn this song after being blown away 
  by a video of a live performance, where Thom Yorke was solo.  I seeked out
  the biggest and baddest of tabs, but to my avail, they all sucked (no offence
  to the people who did them).  I pieced all I could find along with some of
  my own time and hard work invested in nailing details so you won't have to.


Note: All chords are strummed in a triplet feel (1-  2 + 3 +),
      or some variation, thereof. Be creative.


      Also, go easy on the higher strings; you want them to compliment
       the bass part, not bury it. This applies throughout the whole song.


      And one more thing, listen to the recording to hear the timing of the chord
       changes. I recommend |>http://www.youtube.com/watch?v=d_n3JHqLUGo<|


References:

 x - mute a string (thumb or finger)
 (#) - optional note of a chord
 Pm - Palm-mute
 / or \ - slide up or down

   A  Asus  D   Esus  E
e|-0-|-0-|--2--|-0-|--0-|
B|-2-|-3-|--3--|-0-|--0-|
G|-2-|-2-|--2--|-2-|--1-|
D|-2-|-0-|--0--|-2-|--2-|
A|-0-|-0-|-(0)-|-2-|--2-|
E|---|---|-----|-0-|--0-|


[Intro]

e|----0-----0----0----0---|   *at repeat, slide back
B|----0-----0----0----0---|    to first chord
G|----9-----8----7----6---|
D|----10----9----8----7---|   (second time through,
A|----10----9----8----7---|    skip last chord and
E|----8-----7----6----5---|x2  go to lead-in #1)


LEAD-IN #1
e|----0---0---0---0---|
B|----2---2---2---2---|
G|----2---2---2---2---|
D|----2---1---2---1---|
A|----0---0---0---0---|
E|----x---x---x---x---|
                  They...


[Verse]

     A                        Asus
They love me like I was their brother

     D         Asus      Esus    E
They protect me,  listen to me.
     A                  Asus
They dug me my very own garden
        D       Asus       Esus    E
Gave me sunshine,  made me happy

CHORUS       LEAD-IN #2
e|---0----0--|--0---0---0---0---|
B|---7----7--|--5---5---5---5---|  (this leads you back
G|---7(6)-7--|--6---8---6---8---|   into the verse again)
D|---0----x--|--7---7---7---7---|
A|---x----7--|--0---0---0---0---|
E|---7----0--|--x---x---x---x---|


[Verse]

  A                          Asus
I call up my friend the good angel
          D       Asus  Esus         E   
But she's out with, her answer-phone.
    A                            Asus
She says that she'd love to come help but
    D        Asus  Esus          E
The sea would     electrocute us all


[Chorus]

e|---0----0---0---0---0---|
B|---7----7---5---5---5---|
G|---7(6)-7---6-/-7---6---|
D|---0----x---7---7---7---|
A|---x----7---0---0---0---|
E|---7----0---x---x---x---|


Lead-in to BRIDGE 
e|---0---0----0---0---0---0---0---|
B|---0---7----7---5---0---7---7---|
G|---2---7(6)-7---6---2---7---7---|
D|---1---0----*---7---1---0---0---|
A|---x---x----7---0---x---x---x---|
E|---2---7----0---x---2---7---6---|

This is where you can really lay into it...

BRIDGE   Pm---------->  (Don't PM the 3rd and 4th time through)
    e|---0---0---x---x---|
    B|---2---2---3---3---|  (on the second time through,
    G|---2---2---2---2---|   slowly bring your palm off
    D|---2---x---x---x---|   on the last chord of the
    A|---0---2---3---x---|   progression)
    E|---x---x---x---2---|x4

After you strike the last chord on the fourth time through,
   pause for about two measures, then continue.


[Chorus]

e|---0----0---0---0---0---|
B|---7----7---5---5---5---|
G|---7(6)-7---6-/-7---6---|
D|---0----x---7---7---7---|
A|---x----7---0---0---0---|
E|---7----0---x---x---x---|

e|---0---0----0---0---0---0---0---0---|
B|---0---7----7---5---0---7---7---5---|
G|---2---7(6)-7---6---2---7---7---6---|
D|---1---0----*---7---1---0---0---7---|
A|---x---x----7---0---x---x---x---0---|
E|---2---7----0---x---2---7---6---x---|
                                 
  Resolve on this last A-chord    ^

E-mail me with any questions or comments.  I'm open to any feedback.

            
            
Suggest correction
Creating personal tab
Creating personal tab
You can edit any tab online and save it as your Personal.

You can edit, replace or remove any tab part or add personal notes – all changes will be seen only by you.

Personal tabs can be accessed anytime from any device, even offline.
Learn more »
comments
print report bad tab
9 comments total. Showing first comments.
+5 reply
noxusrules 10 Feb 02, 2009 10:37 AM

sound really good

+4 reply
valnaut16 50 Sep 07, 2011 12:24 PM

Great chords,only last chord in the bridge doesnt sound quite right too me

+4 reply
tamirubin 72 Sep 08, 2012 05:48 AM

Beautifully tabbed

guest
You may want to rate the tab now too:
select rating
Wanna post a correction for this tab? Suggest correction