Oops, an error
Loading. Please wait.
We have an official No Surprises tab made by UG professional guitarists. Check out the tab »
×

No Surprises tab

version 7
version 7

Whole song

763 views 27 this week
no commentswrite comment
1 2 3 4 5
2 more votes to show rating
add to favorites
×
Save as Personal and add changes to this tab that will be seen only by you. Learn more ›
×
You can save this tab as Personal to edit and correct it or add notes. All changes will be seen only by you. Learn more »
launch autoscroll
font size
0
reset
how to read this tab
guitar tuner
backing track
0:00
0:00
edit
Autoscroll
slow
fast
+/-
esc
set tempo
stop
Author
About this tab version
This version is more "Auto scroll" friendly. This version doesn't require you to scroll up and down if you want to play along. Was this info helpful? Yes No
Song: No Surprises
Artist: Radiohead
Album: OK Computer

Tuning Standard Gtr 1 Clean Electric No Capo


[Intro]

E|-17----------17----------17--------------------15-|
B|-------18----------18----------18-----------18----|
G|----17----17----17----17----17----17--15-18-------|
D|--------------------------------------------------|  x4
A|--------------------------------------------------|
E|--------------------------------------------------|


[Verse 1]

E|-17----------17----------17----------17-----------|
B|-------18----------18----------18----------18-----|
G|----17----17----17----17----17----17----17----17--| 
D|--------------------------------------------------|  
A|--------------------------------------------------|
E|--------------------------------------------------|

E|-17----------17----------17----------17-----------|
B|-------18----------18----------18----------18-----|
G|----15----15----15----15----15----15----15----15--|
D|--------------------------------------------------|
A|--------------------------------------------------|
E|--------------------------------------------------|

E|-18----------18-----------------------------------|
B|----15-18-15----15-18-15-18-17--------------------|
G|-------------------------------17----------17-15--|
D|----------------------------------17-17h19--------|
A|--------------------------------------------------|
E|--------------------------------------------------|

E|-17----------17----------17--------------------15-|
B|-------18----------18----------18-----------18----|
G|----17----17----17----17----17----17--15-18-------|
D|--------------------------------------------------|  
A|--------------------------------------------------|
E|--------------------------------------------------|

E|-17----------17----------17----------17-----------|
B|-------18----------18----------18----------18-----|
G|----17----17----17----17----17----17----17----17--| 
D|--------------------------------------------------|  
A|--------------------------------------------------|
E|--------------------------------------------------|

E|-17----------17----------17----------17-----------|
B|-------18----------18----------18----------18-----|
G|----15----15----15----15----15----15----15----15--|
D|--------------------------------------------------|
A|--------------------------------------------------|
E|--------------------------------------------------|

E|-18----------18-----------------------------------|
B|----15-18-15----15-18-15-18-17--------------------|
G|-------------------------------17----------17-15--|
D|----------------------------------17-17h19--------|
A|--------------------------------------------------|
E|--------------------------------------------------|

E|-17----------17----------17--------------------15-|
B|-------18----------18----------18-----------18----|
G|----17----17----17----17----17----17--15-18-------|
D|--------------------------------------------------|  
A|--------------------------------------------------|
E|--------------------------------------------------|

E|-17----------17----------17----------17-----------|
B|-------18----------18----------18----------18-----|
G|----15----15----15----15----15----15----15----15--|
D|--------------------------------------------------|
A|--------------------------------------------------|
E|--------------------------------------------------|

E|-18----------18-----------------------------------|
B|----15-18-15----15-18-15-18-17--------------------|
G|-------------------------------17----------17-15--|
D|----------------------------------17-17h19--------|
A|--------------------------------------------------|
E|--------------------------------------------------|


[Chorus]

E|----------------------------------------------------|
B|----------------------------------------------------|
G|-19-17-17-15-15-(17)-(17)-(15)----------15-17-15----|
D|-----------------19---19---17--17-17h19----------15-|
A|----------------------------------------------------|
E|----------------------------------------------------|

E|-------------------------------------------------------|
B|-------------------------------------------18----17----|
G|-19-17-17-15-15-(17)-(17)-(15)-------------------------|
D|-----------------19---19---17---17--17--17----17----17-|
A|-------------------------------------------------------|
E|-------------------------------------------------------|

E|----------------------------------------------------|
B|----------------------------------------------------|
G|-19-17-17-15-15-(17)-(17)-(15)----------15-17-15----|
D|-----------------19---19---17--17-17h19----------15-|
A|----------------------------------------------------|
E|----------------------------------------------------|


[Verse 2]

E|-17----------17----------17--------------------15-|
B|-------18----------18----------18-----------18----|
G|----17----17----17----17----17----17--15-18-------|
D|--------------------------------------------------|  x2
A|--------------------------------------------------|
E|--------------------------------------------------|

E|-17----------17----------17----------17-----------|
B|-------18----------18----------18----------18-----|
G|----15----15----15----15----15----15----15----15--|
D|--------------------------------------------------|
A|--------------------------------------------------|
E|--------------------------------------------------|

E|-18----------18-----------------------------------|
B|----15-18-15----15-18-15-18-17--------------------|
G|-------------------------------17----------17-15--|
D|----------------------------------17-17h19--------|
A|--------------------------------------------------|
E|--------------------------------------------------|


[Chorus]

E|----------------------------------------------------|
B|----------------------------------------------------|
G|-19-17-17-15-15-(17)-(17)-(15)----------15-17-15----|
D|-----------------19---19---17--17-17h19----------15-|
A|----------------------------------------------------|
E|----------------------------------------------------|

E|-------------------------------------------------------|
B|-------------------------------------------18----17----|
G|-19-17-17-15-15-(17)-(17)-(15)-------------------------|
D|-----------------19---19---17---17--17--17----17----17-|
A|-------------------------------------------------------|
E|-------------------------------------------------------|

E|----------------------------------------------------|
B|----------------------------------------------------|
G|-19-17-17-15-15-(17)-(17)-(15)----------15-17-15----|
D|-----------------19---19---17--17-17h19----------15-|
A|----------------------------------------------------|
E|----------------------------------------------------|


[Solo]

E|-17----------17----------17--------------------15-|
B|-------18----------18----------18-----------18----|
G|----17----17----17----17----17----17--15-18-------|
D|--------------------------------------------------|  
A|--------------------------------------------------|
E|--------------------------------------------------|

E|-------------------------|
B|-17----17----18p17-------|
G|-------------------17----|
D|----17----17----------17-|
A|-------------------------|
E|-------------------------|

E|----------------20p18----------------------------------------15----|
B|-------------18-------18----------------18-15----------16-18----18-|
G|-17-15-15-18-------------18-------15----------15-17-18-------------|
D|----------------------------17-17----17----------------------------|
A|-------------------------------------------------------------------|
E|-------------------------------------------------------------------|

E|----20p18----------------------------------------15----|
B|-18-------18----------------18-15----------16-18----18-|
G|-------------18-------15----------15-17-18-------------|
D|----------------17-17----17----------------------------|
A|-------------------------------------------------------|
E|-------------------------------------------------------|


[Verse 3]

E|-17----------17----------17----------17-----------|
B|-------18----------18----------18----------18-----|
G|----17----17----17----17----17----17----17----17--| 
D|--------------------------------------------------|  
A|--------------------------------------------------|
E|--------------------------------------------------|

E|-17----------17----------17----------17-----------|
B|-------18----------18----------18----------18-----|
G|----15----15----15----15----15----15----15----15--|
D|--------------------------------------------------|
A|--------------------------------------------------|
E|--------------------------------------------------|


[Chorus]

E|----------------------------------------------------|
B|----------------------------------------------------|
G|-19-17-17-15-15-(17)-(17)-(15)----------15-17-15----|
D|-----------------19---19---17--17-17h19----------15-|
A|----------------------------------------------------|
E|----------------------------------------------------|

E|-------------------------------------------------------|
B|-------------------------------------------18----17----|
G|-19-17-17-15-15-(17)-(17)-(15)-------------------------|
D|-----------------19---19---17---17--17--17----17----17-|
A|-------------------------------------------------------|
E|-------------------------------------------------------|

E|----------------------------------------------------|
B|----------------------------------------------------|
G|-19-17-17-15-15-(17)-(17)-(15)----------15-17-15----|
D|-----------------19---19---17--17-17h19----------15-|
A|----------------------------------------------------|
E|----------------------------------------------------|


[Outro]

E|-17----------17----------17--------------------15-|
B|-------18----------18----------18-----------18----|
G|----17----17----17----17----17----17--15-18-------|
D|--------------------------------------------------|  x2
A|--------------------------------------------------|
E|--------------------------------------------------|


*********************
 h   Hammer-on
 p   Pull-off
(n)  Ghost Note
*********************

            
            
Suggest correction
Creating personal tab
Creating personal tab
You can edit any tab online and save it as your Personal.

You can edit, replace or remove any tab part or add personal notes – all changes will be seen only by you.

Personal tabs can be accessed anytime from any device, even offline.
Learn more »
Give kudos to tab author, rate the tab!
1 2 3 4 5
comments
print report bad tab
guest
You may want to rate the tab now too:
select rating
Wanna post a correction for this tab? Suggest correction