Oops, an error
Loading. Please wait.

There There tab

version 6
38,951 views 144 this week
2 commentsread comments
1 2 3 4 5
x 29
add to favorites
×
Save as Personal and add changes to this tab that will be seen only by you. Learn more ›
×
You can save this tab as Personal to edit and correct it or add notes. All changes will be seen only by you. Learn more »
launch autoscroll
font size
0
reset
how to read this tab
guitar tuner
backing track
0:00
0:00
edit
Autoscroll
slow
fast
+/-
esc
set tempo
stop
Song:    There There. (The Boney King of Nowhere.)
Artist:  Radiohead
Album:   Hail to the Thief

~Acoustic Version~

Tuning:  D B D G B E
        (Drop D + A String up to B)


[Intro]

E|---------------------0-2------------------------2-0-----0-2-|
B|-------------0------------0-------------0-----------0-------|
G|----2----2------2--------------2----2------2----------------|
D|----0----0---------------------0----0-----------------------|
B|-0-----0---0-------0--------0-----0---0-------0-------0-----|
D|------------------------------------------------------------|

E|--------------2-0---2-----------------0-2---|
B|--------0-----------------------0---------0-|
G|----2-----2--------------2----2---2---------|
D|----0--------------------0----0-------------|
B|-0----0-----0-----0---------0-------0-------|
D|--------------------------------------------|


[Verse]

E|---------------------0-2----------------3-------2----0-------------|
B|-------------0------------0-------------x-------x----x-------------|
G|----2----2------2--------------2----2---2-------2----2-------------|
D|----0----0---------------------0----0---0-------0----0-------------|
B|-0-----0---0-------0--------0-----0---0-0-------0----0-------------|
D|-------------------------------------------------------------------|
         In--- pitch-- dark----     I go- wal-----king in your land--|


E|-x--x--x----x--x--0--0-----x--x--x----x--x--0--0----|
B|-x--x--x----x--x--0--0-----x--x--x----x--x--0--0----|
G|-4--4--4----2--2--0--0-----4--4--4----2--2--0--0----|
D|-0--0--0----0--0--2--2s4---0--0--0----0--0--2--2s4--|
B|-x--x--x----x--x--0--0-----x--x--x----x--x--0--0----|
D|-5--5--5----4--4--2--2s4---5--5--5----4--4--2--2s4--|
   scape----------------------------------------------|

E|---------------------0-2----------------3-------2----0------------|
B|-------------0------------0-------------x-------x----x------------|
G|----2----2------2--------------2----2---2-------2----2------------|
D|----0----0---------------------0----0---0-------0----0------------|
B|-0-----0---0-------0--------0-----0---0-0-------0----0------------|
D|------------------------------------------------------------------|
         Broken----    branches-----      Trip me as-- I------------|


E|-x--x--x----x--x--0--0-----x--x--x----x--x--0--0----|
B|-x--x--x----x--x--0--0-----x--x--x----x--x--0--0----|
G|-4--4--4----2--2--0--0-----4--4--4----2--2--0--0----|
D|-0--0--0----0--0--2--2s4---0--0--0----0--0--2--2s4--|
B|-x--x--x----x--x--0--0-----x--x--x----x--x--0--0----|
D|-5--5--5----4--4--2--2s4---5--5--5----4--4--2--2s4--|
   speak----------------------------------------------|


[Chorus]

E|-x--x--x-x-x-x--x-x-x-x-x-x-x-x--x--x-x-x-x--x-x-x---x-x-x-----|
B|-x--x--x-x-x-x--x-x-x-x-x-x-x-x--x--x-x-x-x--x-x-x---x-x-x-----|
G|-6--6--6-6-6-6--6-6-6-6-6-6-6-6--6--6-6-6-7--7-7-6---6-6-6-----|
D|-7--7--7-7-7-7--7-7-7-7-7-7-7-x--x--x-x-x-x--x-x-x---x-x-x-----|
B|-x--x--x-x-x-x--x-x-x-x-x-x-x-x--x--x-x-x-x--x-x-x---x-x-x-----|
D|-7--7--7-7-7-7--7-7-7-7-7-7-7-4--4--4-4-4-4--4-4-4---4-4-4-----|
         Just cause you feel--- it--          Doesn't mean it's--|

E|---x--x--x----x--x--0--0-----x--x--x----x--x--0--0----|
B|---x--x--x----x--x--0--0-----x--x--x----x--x--0--0----|
G|---4--4--4----2--2--0--0-----4--4--4----2--2--0--0----|
D|---0--0--0----0--0--2--2s4---0--0--0----0--0--2--2s4--|
B|---x--x--x----x--x--0--0-----x--x--x----x--x--0--0----|
D|---5--5--5----4--4--2--2s4---5--5--5----4--4--2--2s4--|
   there------------------------------------------------|

E|-x--x--x-x-x-x--x-x-x-x-x-x-x-x--x--x-x-x-x--x-x-x---x-x-x-----|
B|-x--x--x-x-x-x--x-x-x-x-x-x-x-x--x--x-x-x-x--x-x-x---x-x-x-----|
G|-6--6--6-6-6-6--6-6-6-6-6-6-6-6--6--6-6-6-7--7-7-6---6-6-6-----|
D|-7--7--7-7-7-7--7-7-7-7-7-7-7-x--x--x-x-x-x--x-x-x---x-x-x-----|
B|-x--x--x-x-x-x--x-x-x-x-x-x-x-x--x--x-x-x-x--x-x-x---x-x-x-----|
D|-7--7--7-7-7-7--7-7-7-7-7-7-7-4--4--4-4-4-4--4-4-4---4-4-4-----|
         Just cause you feel--- it--          Doesn't mean it's--|

E|---x--x--x----x--x--0--0-----x--x--x----x--x--0--0----|
B|---x--x--x----x--x--0--0-----x--x--x----x--x--0--0----|
G|---4--4--4----2--2--0--0-----4--4--4----2--2--0--0----|
D|---0--0--0----0--0--2--2s4---0--0--0----0--0--2--2s4--|
B|---x--x--x----x--x--0--0-----x--x--x----x--x--0--0----|
D|---5--5--5----4--4--2--2s4---5--5--5----4--4--2--2s4--|
   there------------------------------------------------|


[Verse 2]

E|---------------------0-2----------------3-------2----0-----------|
B|-------------0------------0-------------x-------x----x-----------|
G|----2----2------2--------------2----2---2-------2----2-----------|
D|----0----0---------------------0----0---0-------0----0-----------|
B|-0-----0---0-------0--------0-----0---0-0-------0----0-----------|
D|-----------------------------------------------------------------|
         There's always a siren---        Singing you- to sh-


E|-x--x--x----x--x--0--0-----x--x--x----x--x--0--0----|
B|-x--x--x----x--x--0--0-----x--x--x----x--x--0--0----|
G|-4--4--4----2--2--0--0-----4--4--4----2--2--0--0----|
D|-0--0--0----0--0--2--2s4---0--0--0----0--0--2--2s4--|
B|-x--x--x----x--x--0--0-----x--x--x----x--x--0--0----|
D|-5--5--5----4--4--2--2s4---5--5--5----4--4--2--2s4--|
   ipwreck--------------------------------------------|

E|---------------------0-2----------------------3-------2----0------------|
B|-------------0------------0-------------------x-------x----x------------|
G|----2----2------2--------------2----2---------2-------2----2------------|
D|----0----0---------------------0----0---------0-------0----0------------|
B|-0-----0---0-------0--------0-----0---0-------0-------0----0------------|
D|------------------------------------------------------------------------|
         Steer away from these rocks, we'd be a wal-----king di-----------|


E|-x--x--x----x--x--0--0-----x--x--x----x--x--0--0----|
B|-x--x--x----x--x--0--0-----x--x--x----x--x--0--0----|
G|-4--4--4----2--2--0--0-----4--4--4----2--2--0--0----|
D|-0--0--0----0--0--2--2s4---0--0--0----0--0--2--2s4--|
B|-x--x--x----x--x--0--0-----x--x--x----x--x--0--0----|
D|-5--5--5----4--4--2--2s4---5--5--5----4--4--2--2s4--|
   saster---------------------------------------------|


[Chorus]

E|-x--x--x-x-x-x--x-x-x-x-x-x-x-x--x--x-x-x-x--x-x-x---x-x-x-----|
B|-x--x--x-x-x-x--x-x-x-x-x-x-x-x--x--x-x-x-x--x-x-x---x-x-x-----|
G|-6--6--6-6-6-6--6-6-6-6-6-6-6-6--6--6-6-6-7--7-7-6---6-6-6-----|
D|-7--7--7-7-7-7--7-7-7-7-7-7-7-x--x--x-x-x-x--x-x-x---x-x-x-----|
B|-x--x--x-x-x-x--x-x-x-x-x-x-x-x--x--x-x-x-x--x-x-x---x-x-x-----|
D|-7--7--7-7-7-7--7-7-7-7-7-7-7-4--4--4-4-4-4--4-4-4---4-4-4-----|
         Just cause you feel--- it--          Doesn't mean it's--|

E|---x--x--x----x--x--0--0-----x--x--x----x--x--0--0----|
B|---x--x--x----x--x--0--0-----x--x--x----x--x--0--0----|
G|---4--4--4----2--2--0--0-----4--4--4----2--2--0--0----|
D|---0--0--0----0--0--2--2s4---0--0--0----0--0--2--2s4--|
B|---x--x--x----x--x--0--0-----x--x--x----x--x--0--0----|
D|---5--5--5----4--4--2--2s4---5--5--5----4--4--2--2s4--|
   there------------------------------------------------|

E|-x--x--x-x-x-x--x-x-x-x-x-x-x-x--x--x-x-x-x--x-x-x---x-x-x-----|
B|-x--x--x-x-x-x--x-x-x-x-x-x-x-x--x--x-x-x-x--x-x-x---x-x-x-----|
G|-6--6--6-6-6-6--6-6-6-6-6-6-6-6--6--6-6-6-7--7-7-6---6-6-6-----|
D|-7--7--7-7-7-7--7-7-7-7-7-7-7-x--x--x-x-x-x--x-x-x---x-x-x-----|
B|-x--x--x-x-x-x--x-x-x-x-x-x-x-x--x--x-x-x-x--x-x-x---x-x-x-----|
D|-7--7--7-7-7-7--7-7-7-7-7-7-7-4--4--4-4-4-4--4-4-4---4-4-4-----|
         Just cause you feel--- it--          Doesn't mean it's--|

E|---x--x--x----x--x--0--0-----x--x--x----x--x--0--0----|
B|---x--x--x----x--x--0--0-----x--x--x----x--x--0--0----|
G|---4--4--4----2--2--0--0-----4--4--4----2--2--0--0----|
D|---0--0--0----0--0--2--2s4---0--0--0----0--0--2--2s4--|
B|---x--x--x----x--x--0--0-----x--x--x----x--x--0--0----|
D|---5--5--5----4--4--2--2s4---5--5--5----4--4--2--2s4--|
   there------------------------------------------------|


[Breakdown]

E|--------------------------------------------------------------------|
B|--------------------------------------------------------------------|
G|--------------------------------------------------------------------|
D|-----------7-----7---7----7---7-9-7------7-----7---7----7---7-9-7---|
B|-----------7-----7---7----7---7-9-7------7-----7---7----7---7-9-7---|
D|--------9----9-9---9----9---9-------9-9----9-9---9----9---9-------9-|
  There theeeeeeeeeeeeeeeeeeeeeeeeeeeeeeeeeeeeeeeeeeeeeeeeeeeeeeeeeere!

E|-------------------------------------------------------------------------|
B|-------------------------------------------------------------------------|
G|-------------------------------------------------------------------------|
D|-----10-------10----10-----10----10-12-10-------5-----5---5----7-7-7-6-5-|
B|-----10-------10----10-----10----10-12-10-------5-----5---5----7-7-7-6-5-|
D|-12-----12-12----12-----12----12----------12-7----7-7---7----7-----------|

E|--------------------------------------------|
B|--------------------------------------------|
G|--------------------------------------------|
D|-2--2--0-2-0-2s4-2--2-0-2-0-2---2--2-0-2-0--|
B|-x--x--0-x-0-x---x--x-0-x-0-x---x--x-0-x-0--|
D|-2--2--0-2-0-2s4-2--2-0-2-0-2s4-2--2-0-2-0--|


E|----------------------------------------------------------------|
B|----------------------------------------------------------------|
G|----------------------------------------------------------------|
D|-----7-----7---7----7---7-9-7------7-----7---7----7---7-9-7-----|
B|-----7-----7---7----7---7-9-7------7-----7---7----7---7-9-7-----|
D|--9----9-9---9----9---9-------9-9----9-9---9----9---9-------9---|
    Why--------  so-----------    green----------------     and---|

E|----------------------------------------------------------------------------|
B|----------------------------------------------------------------------------|
G|----------------------------------------------------------------------------|
D|-----10-------10----10-----10----10-12-10-------5-----5---5----5---5-7-5----|
B|-----10-------10----10-----10----10-12-10-------5-----5---5----5---5-7-5----|
D|-12-----12-12----12-----12----12----------12-7----7-7---7----7---7----------|
   lonely-----------------------         and-- lonely----------------    and--|

E|--------------------------------------------|
B|--------------------------------------------|
G|--------------------------------------------|
D|-2--2--0-2-0-2s4-2--2-0-2-0-2---2--2-0-2-0--|
B|-x--x--0-x-0-x---x--x-0-x-0-x---x--x-0-x-0--|
D|-2--2--0-2-0-2s4-2--2-0-2-0-2s4-2--2-0-2-0--|
   lonely-------------------------------------|


E|---------------------------------------------------------------|
B|---------------------------------------------------------------|
G|---------------------------------------------------------------|
D|-----7-----7---7----7---7-9-7------7-----7---7----7---7-9-7----|
B|-----7-----7---7----7---7-9-7------7-----7---7----7---7-9-7----|
D|--9----9-9---9----9---9-------9-9----9-9---9----9---9-------9--|
    Heaven-----------------       sent-------  you---------------|

E|---------------------------------------------------------------------------|
B|---------------------------------------------------------------------------|
G|---------------------------------------------------------------------------|
D|-----10-------10----10-----10----10-12-10-------5-----5---5----5---5-7-5---|
B|-----10-------10----10-----10----10-12-10-------5-----5---5----5---5-7-5---|
D|-12-----12-12----12-----12----12----------12-7----7-7---7----7---7---------|
   to me-----------------------               to me----------------      to--|

E|--------------------------------------------|
B|--------------------------------------------|
G|--------------------------------------------|
D|-2--2--0-2-0-2s4-2--2-0-2-0-2---2--2-0-2-0--|
B|-x--x--0-x-0-x---x--x-0-x-0-x---x--x-0-x-0--|
D|-2--2--0-2-0-2s4-2--2-0-2-0-2s4-2--2-0-2-0--|
   me-----------------------------------------|


E|--------------------------------------------------------------|
B|--------------------------------------------------------------|
G|--------------------------------------------------------------|
D|------7-----7---7----7---7-9-7------7-----7---7----7-7-7-6-5--|
B|------7-----7---7----7---7-9-7------7-----7---7----7-7-7-6-5--|
D|-7s9----9-9---9----9---9-------7s9----9-9---9----9------------|

E|-------------------------------------------------------------------------|
B|-------------------------------------------------------------------------|
G|-------------------------------------------------------------------------|
D|-----10-------10----10-----10----10-12-10-------5-----5---5----5---5-7-5-|
B|-----10-------10----10-----10----10-12-10-------5-----5---5----5---5-7-5-|
D|-12-----12-12----12-----12----12----------12s7----7-7---7----7---7-------|

E|--------------------------------------------|
B|--------------------------------------------|
G|--------------------------------------------|
D|-2--2--0-2-0-2s4-2--2-0-2-0-2---2--2-0-2-0--|
B|-x--x--0-x-0-x---x--x-0-x-0-x---x--x-0-x-0--|
D|-2--2--0-2-0-2s4-2--2-0-2-0-2s4-2--2-0-2-0--|


E|-----------------------------------------------------------------|
B|-----------------------------------------------------------------|
G|-----------------------------------------------------------------|
D|------7-----7---7----7---7-9-7------7-----7---7----7-7-7-6-5-----|
B|------7-----7---7----7---7-9-7------7-----7---7----7-7-7-6-5-----|
D|-7s9----9-9---9----9---9-------7s9----9-9---9----9---------------|
     We---------  are-----------   accidents---------------   wai--|

E|---------------------------------------------------------------------------|
B|---------------------------------------------------------------------------|
G|---------------------------------------------------------------------------|
D|-----10-------10----10-----10----10-12-10-------5-----5---5----5---5-7-5---|
B|-----10-------10----10-----10----10-12-10-------5-----5---5----5---5-7-5---|
D|-12-----12-12----12-----12----12----------12s7----7-7---7----7---7---------|
   ting--------------------                 waiting--------------------  to--|

E|--------------------------------------------|
B|--------------------------------------------|
G|--------------------------------------------|
D|-2--2--0-2-0-2s4-2--2-0-2-0-2---2--2-0-2-0--|
B|-x--x--0-x-0-x---x--x-0-x-0-x---x--x-0-x-0--|
D|-2--2--0-2-0-2s4-2--2-0-2-0-2s4-2--2-0-2-0--|
   happen-------------------------------------|


E|-----------------------------------------------------------------|
B|-----------------------------------------------------------------|
G|-----------------------------------------------------------------|
D|------7-----7---7----7---7-9-7------7-----7---7----7-7-7-6-5-----|
B|------7-----7---7----7---7-9-7------7-----7---7----7-7-7-6-5-----|
D|-7s9----9-9---9----9---9-------7s9----9-9---9----9---------------|
     We---------  are-----------   accidents---------------   wai--|

E|---------------------------------------------------------------------------|
B|---------------------------------------------------------------------------|
G|---------------------------------------------------------------------------|
D|-----10-------10----10-----10----10-12-10-------5-----5---5----5---5-7-5---|
B|-----10-------10----10-----10----10-12-10-------5-----5---5----5---5-7-5---|
D|-12-----12-12----12-----12----12----------12s7----7-7---7----7---7---------|
   ting--------------------                 waiting--------------------  to--|

E|--------------------------------------------5---|
B|--------------------------------------------0---|
G|--------------------------------------------0---|
D|-2--2--0-2-0-2s4-2--2-0-2-0-2---2--2-0-2-0--0---|
B|-x--x--0-x-0-x---x--x-0-x-0-x---x--x-0-x-0--0---|
D|-2--2--0-2-0-2s4-2--2-0-2-0-2s4-2--2-0-2-0--x---|
   happen-----------------------------------------| 


************************************

| x  Dead note
| s  Slide

************************************

            
            
Suggest correction
Creating personal tab
Creating personal tab
You can edit any tab online and save it as your Personal.

You can edit, replace or remove any tab part or add personal notes – all changes will be seen only by you.

Personal tabs can be accessed anytime from any device, even offline.
Learn more »
comments
print report bad tab
2 comments total.
+1 reply
Suma 10 Oct 15, 2010 06:36 AM

Perfect.
Thanks for this Tab!

+2 reply
Xnimez 976 Nov 11, 2012 07:03 AM

Perfect. The tabs with the right tuning are rare, this one is correct!

guest
You may want to rate the tab now too:
select rating
Wanna post a correction for this tab? Suggest correction