Oops, an error
Loading. Please wait.

Weird Fishes Arpeggi bass

version 1
version 1

Whole song

Interactive

43,628 views 87 this week
2 commentsread comments
1 2 3 4 5
x 11
add to favorites
×
Save as Personal and add changes to this tab that will be seen only by you. Learn more ›
×
You can save this tab as Personal to edit and correct it or add notes. All changes will be seen only by you. Learn more »
launch autoscroll
font size
0
reset
guitar tuner
edit
Autoscroll
slow
fast
+/-
esc
set tempo
stop
Author
Difficulty
intermediate
Weird Fishes/Arpeggi

Radiohead
- Colin Greenwood (Bass)

Tuning: E A D G
Meter: 4/4
Tempo: 152-160 BPM
Instrument: Fender P-Bass


Notes;

1)  The part which is played  |--------|   can (and probally should) be played as,   |--|
                          |--------|                              |---------------------|
                  |-----5-7|                                             |--------------|
                  |00-5----|                                             |00-5-10-12----|


    The second way is the way it is seen on many videos of this song being performed.
    But I can't get a good tone using that method, so feel free (obviously) to use either.

2)  This tab is for the album version only as in all live versions Colin plays extra 
in from random notes,
    ommits parts in favor of others and generally ad libs, as you would expect.

3)  The final bass part is lost in distortion and overwhelmed by the similarly pitched
instrument, as such
    the tab after the "weird fishes bridge" is based on videos and what sounds good.

0.01
G|--------|--------|--------|--------|--------|--------|--------|--------|
D|--------|--------|--------|--------|--------|--------|--------|--------|
A|--------|--------|--------|--------|-----5-7|--------|--------|--------|
E|--------|--------|--------|--------|00-5----|--------|--------|--------|


00.13
G|--------|--------|--------|--------|--------|--------|--------|--------|
D|--------|--------|--------|--------|--------|--------|--------|--------|
A|--------|--------|--------|--------|--------|--------|--------|--------|
E|22------|--------|--------|--------|55------|--------|--------|--------|


00.25
G|--------|--------|--------|--------|--------|--------|--------|--------|
D|--------|--------|--------|--------|--------|--------|--------|--------|
A|--------|--------|--------|--------|-----5-7|--------|--------|--------|
E|223320-0|--------|--------|--------|00-5----|--------|--------|--------|


00.38
G|--------|--------|--------|--------|--------|--------|--------|--------|
D|--------|--------|--------|--------|--------|--------|--------|--------|
A|--------|--------|--------|--------|--------|--------|--------|--------|
E|22------|--------|--------|-----(3)|55------|--------|--------|--------|


00.51
G|--------|--------|--------|--------|--------|--------|--------|--------|
D|--------|--------|--------|--------|--------|--------|--------|--------|
A|--------|--------|--------|--------|-----5-7|--------|--------|--------|
E|663-----|--------|23------|-----7/0|00-5----|--------|--------|--------|
                                     | Vocals start here

01.04
G|--------|--------|--------|--------|--------|--------|--------|--------|
D|--------|--------|--------|--------|--------|--------|--------|--------|
A|--------|--------|--------|--------|--------|--------|--------|--------|
E|22------|--------|--------|--------|55------|--------|--------|--------|


01.16
G|--------|--------|--------|--------|--------|--------|--------|--------|
D|--------|--------|--------|--------|--------|--------|--------|--------|
A|--------|--------|--------|--------|-----5-7|--------|--------|--------|
E|332-0-0-|--------|--------|--------|00-5----|--------|--------|--------|


01.29
G|--------|--------|--------|--------|--------|--------|--------|--------|
D|--------|--------|--------|--------|--------|--------|--------|--------|
A|--------|--------|--------|--------|--------|--------|--------|--------|
E|22------|--------|--------|-----0-3|55------|--------|--------|--------|


01.41
G|--------|--------|--------|--------|--------|--------|--------|--------|
D|--------|--------|--------|--------|--------|--------|--------|--------|
A|--------|--------|--------|--------|-----5-7|--------|--------|--------|
E|223320-0|--------|--------|-----7/0|00-5----|--------|--------|--------|


01.54
G|--------|--------|--------|--------|--------|--------|--------|--------|
D|--------|--------|--------|--------|--------|--------|--------|--------|
A|--------|--------|--------|--------|--------|--------|--------|--------|
E|552-----|--------|--------|-----0-3|55------|--------|--------|--------|


02.06
G|--------|--------|--------|--------|--------|--------|--------|--------|
D|--------|--------|--------|--------|--------|--------|--------|--------|
A|--------|--------|--------|--------|-----5-7|--------|--------|--------|
E|663-----|--------|233-----|-----532|00-5----|--------|--------|--------|


02.19
G|--------|--------|--------|--------|--------|--------|--------|--------|
D|--------|--------|--------|--------|--------|--------|--------|--------|
A|--------|--------|--------|--------|--------|--------|--------|--------|
E|22------|--------|--------|-----0-3|55------|--------|--------|--------|


02.31
G|--------|--------|--------|--------|--------|--------|--------|--------|
D|--------|--------|--------|--------|--------|--------|--------|--------|
A|--------|--------|--------|--------|-----5-7|--------|--------|--------|
E|566-3---|--------|233-----|23-3-3-3|00-5----|--------|--------|--------|


02.44
G|--------|--------|--------|--------|--------|--------|--------|--------|
D|--------|--------|--------|--------|--------|--------|--------|--------|
A|--------|--------|--------|--------|--------|--------|--------|--------|
E|55--3--2|--------|--------|-----0-3|55------|-------3|55------|--------|


02.56
G|--------|--------|--------|--------|--------|--------|--------|--------|
D|--------|--------|--------|--------|--------|--------|--------|--------|
A|--------|--------|--------|--------|---R----|---E----|---S----|----T---|
E|566-3---|--------|23------|--------|--------|--------|--------|--------|
                                     |weird fishes bridge starts

03.09
G|--------|--------|--------|--------|--------|--------|--------|--------|
D|--------|--------|--------|--------|--------|--------|--------|--------|
A|---R----|---E----|---S----|----T---|---R----|---E----|---S----|----T---|
E|--------|--------|--------|--------|--------|--------|--------|--------|


03.22
G|--------|--------|--------|--------|--------|--------|--------|--------|
D|--------|--------|--------|--------|--------|--------|--------|--------|
A|---R----|---E----|---S----|----T---|--------|--------|--------|--------|
E|--------|--------|--------|--------|-35--5--|5--5--5-|-5--5--5|--5--5--|


03.35
G|--------|--------|--------|--------|--------|--------|--------|--------|
D|--------|--------|--------|--------|--------|--------|--------|--------|
A|--------|--------|--------|--------|---R----|---E----|---S----|---T----|
E|3--3--3-|-3--3--3|--3--3--|3--3--3-|--------|--------|--------|--------|
           Weird fishes bridge ends  |  Outro Begins

03.47
G|--------|--------|--------|--------|--------|--------|--------|--------|
D|--------|--------|--------|--------|--------|--------|--------|--------|
A|---R----|---E----|---S----|---T----|---R----|---E----|---S----|---T----|
E|--------|--------|--------|--------|--------|--------|--------|--------|
                                     |

03.59
G|--------|--------|--------|--------|--------|--------|--------|--------|
D|--------|--------|--------|--------|--------|--------|--------|--------|
A|---R----|---E----|---S----|---T----|---R----|---E----|---S----|---T----|
E|--------|--------|--------|--------|--------|--------|--------|--------|


04.12
G|--------|--------|--------|--------|--------|--------|--------|--------|
D|--------|--------|--------|--------|--------|--------|--------|--------|
A|---R----|---E----|---S----|---T----|--------|--------|--------|--------|
E|--------|--------|--------|--------|2233200-|--------|--------|--------|   (04:18; 
part is quiet,
                                                                                  can be
on a video though)

04.25
G|--------|--------|--------|--------|--------|--------|--------|--------|
D|--------|--------|--------|--------|--------|--------|--------|--------|
A|2-2-22--|2--2-222|2-2-22--|2--2-222|3-3-33--|3-3--333|2-2-22--|2-2--222|
E|--------|--------|--------|--------|--------|--------|--------|--------|


04.38
G|--------|--------|----------|--------|----------|--------|--------|--------|
D|--------|--------|----------|--------|----------|--------|--------|--------|
A|0-0-00--|0--0-000|----------|--------|----------|--------|2-2-22--|2-2--222|
E|--------|--------|OH3-3-33--|3--3-333|0H3-3-33--|3--3-333|--------|--------|


04.50
G|--------|--------|--------|--------|--------|--------|--------|--------|
D|--------|--------|--------|--------|--------|--------|--------|--------|
A|2-2-22--|2--2-222|3-3-33--|3--3-333|2-2-22--|2--2-222|0-0-00--|0-0--000|
E|--------|--------|--------|--------|--------|--------|--------|--------|


05.03
G|----------|--------|----------|--------|--------|
D|----------|--------|----------|--------|--------|
A|----------|--------|----------|--------|2-------|
E|2h3-3-33--|3--3-333|2h3-3-33--|3--3-333|--------|


OR (Variations of this part are played by the lead guitar from 3.55
     but I think it sounds good if the bass joins in at 4.25)


4.12

G|--------|--------|--------|--------|--------|--------|--------|--------|
D|--------|--------|--------|--------|--------|--------|--------|--------|
A|---R----|---E----|---S----|---T----|--------|--------|--------|--------|
E|--------|--------|--------|--------|2233200-|--------|--------|--------|

4.25

G|--------|--------|--------|--------|--------|--------|--------|--------|
D|--------|-----024|--------|--024/5-|--------|420-0---|--------|-024----|
A|2-2-22-2|2-24----|2-22-222|2-------|3-33-333|---2---2|-22-222-|2-----0-|
E|--------|--------|--------|--------|--------|--------|--------|--------|

4.38

G|--------|--------|--------|--------|--------|--------|--------|--------|
D|--------|-420-0--|--------|--------|--------|--------|--024---|--------|
A|00-0-0-0|----2---|--------|--------|--------|--------|24------|2-2--222|
E|--------|-------3|--3-33-3|-3-3-333|0H3-3-3-|3--3-333|--------|--------|

4.50

G|--------|--------|--------|--------|--------|--------|--------|--------|
D|--024---|--------|--024/5-|--------|-420-0--|--------|-024----|--------|
A|24------|2-22-222|2-------|3-33-333|----2--2|2-2-2-22|2-----0-|00-0-0-0|
E|--------|--------|--------|--------|--------|--------|--------|--------|

5.03

G|--------|--------|----------|---------|--------|
D|-420-0--|--------|----------|---------|--------|
A|0---2---|--------|----------|--=------|-2------|
E|-------3|-33-333-|333-0h3-33|-33-3-333|3-------|

ENJOY


************************************

| (n)  Ghost note
| /    Slide up
| h    Hammer-on

************************************

            
            
Suggest correction
Creating personal tab
Creating personal tab
You can edit any tab online and save it as your Personal.

You can edit, replace or remove any tab part or add personal notes – all changes will be seen only by you.

Personal tabs can be accessed anytime from any device, even offline.
Learn more »
comments
print report bad tab
2 comments total.
0 reply
Zwicky 153 Feb 13, 2008 04:38 AM

Sorry, It appears some of the notes are too wide for the screen and some information is missing, none of it is vital though.

0 reply
Shmuh 30 Jun 15, 2009 01:16 PM

Zwicky, just increase your resolution. I can see everything just fine.

guest
You may want to rate the tab now too:
select rating
Wanna post a correction for this tab? Suggest correction