Oops, an error
Loading. Please wait.

Weird Fishes Arpeggi intro tab

version 1
version 1

Intro

Whole song

Interactive

10,965 views 9 this week
no commentswrite comment
1 2 3 4 5
1 last vote to show rating
add to favorites
×
Save as Personal and add changes to this tab that will be seen only by you. Learn more ›
×
You can save this tab as Personal to edit and correct it or add notes. All changes will be seen only by you. Learn more »
launch autoscroll
font size
0
reset
how to read this tab
guitar tuner
edit
Autoscroll
slow
fast
+/-
esc
set tempo
stop
Author
Intro
e|--------------------------------|
B|-3--3--3--3--3--3--3--3--3--3---|
G|--2--2--2--2--2--2--2--2--2--2--|
D|---2--2--2--2--2--2--2--2--2--2-|
A|--------------------------------|
E|--------------------------------|

e|-------------------------------------|
B|-5--5--5--5--5--5--5--5--5--5--5-----|
G|--4--4--4--4--4--4--4--4--4--4--4----|
D|---4--4--4--4--4--4--4--4--4--4--4---|
A|-------------------------------------|
E|-------------------------------------|

e|-----------------------------------------------------------------|
B|-10---10---10---10---10---10---10---10---10---10---10------------|
G|---9----9----9----9----9----9----9-----9----9----9----9----------|
D|----11--11---11---11---11---11---11----11---11---11---11---------|
A|-----------------------------------------------------------------|
E|-----------------------------------------------------------------|

e|----------------------------------|
B|-7--7--7--7--7--7--7--7--7--7-----|
G|--7--7--7--7--7--7--7--7--7--7----|
D|---9--9--9--9--9--9--9--9--9--9---|
A|----------------------------------|
E|----------------------------------|


e|--------------------------------|
B|-3--3--3--3--3--3--3--3--3--3---|
G|--2--2--2--2--2--2--2--2--2--2--|
D|---2--2--2--2--2--2--2--2--2--2-|
A|--------------------------------|
E|--------------------------------|


e|-------------------------------------|
B|-5--5--5--5--5--5--5--5--5--5--5-----|
G|--4--4--4--4--4--4--4--4--4--4--4----|
D|---4--4--4--4--4--4--4--4--4--4--4---|
A|-------------------------------------|
E|-------------------------------------|

e|-----------------------------------------------------|
B|-10---10---10---10---10---8---8---8---7---7---7------|
G|---9----9----9----9----9----9---9---9---9---9---9----|
D|----11--11---11---11---11---11--11--11--11--11--11---|
A|-----------------------------------------------------|
E|-----------------------------------------------------|

e|-------------------------------------|
B|-7--7--7--7--7--7--7--7--7--7--7/3---|
G|--7--7--7--7--7--7--7--7--7--7-------|
D|---9--9--9--9--9--9--9--9--9--9------|
A|-------------------------------------|
E|-------------------------------------|

In the deepest ocean                      The bottom of the sea
e|----------------------------------------------------------------------|
B|-3--3--3--3--3--3--3--3--3--3--3/5--5--5--5--5--5--5--5--5--5--5------|
G|--2--2--2--2--2--2--2--2--2--2----4--4--4--4--4--4--4--4--4--4--4-----|
D|---2--2--2--2--2--2--2--2--2--2----4--4--4--4--4--4--4--4--4--4--4----|
A|----------------------------------------------------------------------|
E|----------------------------------------------------------------------|

Your eyes                                                                  e|--|
B|-10---10---10---10---10---8---8---8---7---7---7------------------------------|
G|---9----9----9----9----9----9---9---9---9---9---9----------------------------|
D|----11--11---11---11---11---11--11--11--11--11--11---------------------------|
A|-----------------------------------------------------------------------------|
E|-----------------------------------------------------------------------------|

 They turn me

e|-------------------------------------|
B|-7--7--7--7--7--7--7--7--7--7--7/3---|
G|--7--7--7--7--7--7--7--7--7--7-------|
D|---9--9--9--9--9--9--9--9--9--9------|
A|-------------------------------------|
E|-------------------------------------|


Why should I stay here                    Why should I stay
e|--------------------------------------------------------------------|
B|-3--3--3--3--3--3--3--3--3--3--3/5--5--5--5--5--5--5--5--5--5--5----|
G|--2--2--2--2--2--2--2--2--2--2----4--4--4--4--4--4--4--4--4--4--4---|
D|---2--2--2--2--2--2--2--2--2--2----4--4--4--4--4--4--4--4--4--4--4--|
A|--------------------------------------------------------------------|
E|--------------------------------------------------------------------|


e|-----------------------------------------------------------------|
B|-10---10---10---10---10---10---10---10---10---10---10------------|
G|---9----9----9----9----9----9----9-----9----9----9----9----------|
D|----11--11---11---11---11---11---11----11---11---11---11---------|
A|-----------------------------------------------------------------|
E|-----------------------------------------------------------------|

e|----------------------------------|
B|-7--7--7--7--7--7--7--7--7--7-----|
G|--7--7--7--7--7--7--7--7--7--7----|
D|---9--9--9--9--9--9--9--9--9--9---|
A|----------------------------------|
E|----------------------------------|


I'd be crazy not to follow                  Follow where you lead
e|------------------------------------------------------------------------|
B|-3--3--3--3--3--3--3--3--3--3----5--5--5--5--5--5--5--5--5--5--5--------|
G|--2--2--2--2--2--2--2--2--2--2----4--4--4--4--4--4--4--4--4--4--4-------|
D|---2--2--2--2--2--2--2--2--2--2----4--4--4--4--4--4--4--4--4--4--4------|
A|------------------------------------------------------------------------|
E|------------------------------------------------------------------------|


  Your eyes                                                                 e|--|
B|-10---10---10---10---10---8---8---8---7---7---7-------------------------------|
G|---9----9----9----9----9----9---9---9---9---9---9-----------------------------|
D|----11--11---11---11---11---11--11--11--11--11--11----------------------------|
A|------------------------------------------------------------------------------|
E|------------------------------------------------------------------------------|


   They turn me
e|-------------------------------------|
B|-7--7--7--7--7--7--7--7--7--7--------|
G|--7--7--7--7--7--7--7--7--7--7-------|
D|---9--9--9--9--9--9--9--9--9--9------|
A|-------------------------------------|
E|-------------------------------------|


Turn me on the phantoms                  I follow to the edge
e|----------------------------------------------------------------------|
B|-3--3--3--3--3--3--3--3--3--3--3/5--5--5--5--5--5--5--5--5--5--5------|
G|--2--2--2--2--2--2--2--2--2--2----4--4--4--4--4--4--4--4--4--4--4-----|
D|---2--2--2--2--2--2--2--2--2--2----4--4--4--4--4--4--4--4--4--4--4----|
A|----------------------------------------------------------------------|
E|----------------------------------------------------------------------|

 of the earth
e|-------------------------------------------------------------------|
B|-10---10---10---10---10---10---10---10---10---10---10--------------|
G|---9----9----9----9----9----9----9----9----9----9----9-------------|
D|----11--11---11---11---11---11---11----11---11---11---11-----------|
A|-------------------------------------------------------------------|
E|-------------------------------------------------------------------|

   And fall off
e|----------------------------------|
B|-7--7--7--7--7--7--7--7--7--7-----|
G|--7--7--7--7--7--7--7--7--7--7----|
D|---9--9--9--9--9--9--9--9--9--9---|
A|----------------------------------|
E|----------------------------------|

   Everybody leaves                  If they get the chance
e|----------------------------------------------------------------------|
B|-3--3--3--3--3--3--3--3--3--3--3/5--5--5--5--5--5--5--5--5--5--5------|
G|--2--2--2--2--2--2--2--2--2--2----4--4--4--4--4--4--4--4--4--4--4-----|
D|---2--2--2--2--2--2--2--2--2--2----4--4--4--4--4--4--4--4--4--4--4----|
A|----------------------------------------------------------------------|
E|----------------------------------------------------------------------|

  And this
e|---------------------------------------------------------|
B|-10---10---10---10---10---10---10---10---10---10---10/7--|
G|---9----9----9----9----9----9----9-----9----9----9-------|
D|----11--11---11---11---11---11---11----11---11---11------|
A|---------------------------------------------------------|
E|---------------------------------------------------------|

   is my chance
e|----------------------------------|
B|-7--7--7--7--7--7--7--7--7--7-----|
G|--7--7--7--7--7--7--7--7--7--7----|
D|---9--9--9--9--9--9--9--9--9--9---|
A|----------------------------------|
E|----------------------------------|

Please comment xD

            
            
Suggest correction
Creating personal tab
Creating personal tab
You can edit any tab online and save it as your Personal.

You can edit, replace or remove any tab part or add personal notes – all changes will be seen only by you.

Personal tabs can be accessed anytime from any device, even offline.
Learn more »
Give kudos to tab author, rate the tab!
1 2 3 4 5
comments
print report bad tab
guest
You may want to rate the tab now too:
select rating
Wanna post a correction for this tab? Suggest correction