Oops, an error
Loading. Please wait.

Where I End And You Begin bass

version 2
version 2

Whole song

Interactive

1,275 views 18 this week
no commentswrite comment
1 2 3 4 5
x 3
add to favorites
×
Save as Personal and add changes to this tab that will be seen only by you. Learn more ›
×
You can save this tab as Personal to edit and correct it or add notes. All changes will be seen only by you. Learn more »
launch autoscroll
font size
0
reset
guitar tuner
edit
Autoscroll
slow
fast
+/-
esc
set tempo
stop
--------------------------------------------------------------------------------------------------------
                             Where I End And You Begin - Radiohead
--------------------------------------------------------------------------------------------------------
Tabbed by: Murdoc Newell

This is my first ever tab so don't expect quality!.

Main Riff:

G|---------------------------------------------------------------------------|
D|--10-10-101010-8-----------------------------------------------------------|
A|-----------------10-10-1010-8-10-11-11-111111-10-8-8-88-6-8-10-10-1010-810-|
E|---------------------------------------------------------------------------|


G|-----------------------------------|
D|--------------------------88-88--8-|
A|-------------------------------10--|
E|8-8-88-6-8-11-11-111111------------|

Riff Inbetween Verses And Chorus:

G|-----------|
D|-----------|
A|----6------|
E|6-8---88-8-|

Ending Riff

G|---------------------------------------------------------------------------|
D|---------------------------------------------------------------------------|
A|-----666-6-----666-6-------666-6-----688-6--6---6------6---6------6---6----|
E|-6-8--------6-8--------6-8-------6-8----------8---88-8---8---88-8---8---88-|


G|-------------|
D|-------------|
A|--6---6------|
E|8---8---88-8-|

************************************

| /   slide up
| \   slide down
| h   hammer-on
| p   pull-off
| ~   vibrato
| +   harmonic
| x   Mute note
| b   Bend
| pb  Pre-bend
| br  Bend release
| pbr Pre-bend release
| brb Bend release bend

************************************

            
            
Suggest correction
Creating personal tab
Creating personal tab
You can edit any tab online and save it as your Personal.

You can edit, replace or remove any tab part or add personal notes – all changes will be seen only by you.

Personal tabs can be accessed anytime from any device, even offline.
Learn more »
Give kudos to tab author, rate the tab!
1 2 3 4 5
comments
print report bad tab
guest
Wanna post a correction for this tab? Suggest correction