Oops, an error
Loading. Please wait.

Wolf At The Door tab

30,265 views 1 this week
4 commentsread comments
1 2 3 4 5
x 7
add to favorites
×
Save as Personal and add changes to this tab that will be seen only by you. Learn more ›
×
You can save this tab as Personal to edit and correct it or add notes. All changes will be seen only by you. Learn more »
launch autoscroll
font size
0
reset
how to read this tab
guitar tuner
edit
Autoscroll
slow
fast
+/-
esc
set tempo
stop
Author
"Wolf At The Door"
Radiohead
from "Hail To The Thief"
tabbed by arlen b, 04/12/03
website: http://www.geocities.com/kingoftheeskimos

standard tuning

intro/verse:
  Dm          Dsus2       Gm/Eb       Gm
e----------------------------------------------------------------------
B-------6-----------5-----------4-----------3--------------------------
G-----7---7-------7---7-------3---3-------3---3------------------------
D---7-------7---7-------7-----------5-----------5----------------------
A-5-----------5-------------5-----------5------------------------------
E-------------------------3-----------3--------------------------------

  Asus4       A/G
e----------------------------------------------------------------------
B-------3-----------2(3-5)*--------------------------------------------
G-----2---2-------2---2------------------------------------------------
D---2-------2---2-------2----------------------------------------------
A-0--------------------------------------------------------------------
E-------------3--------------------------------------------------------
*notes in parenthesis are used in place of other notes on some repetitions


chorus:
  D/F#                    G
e----------------------------------------------------------------------
B-----3-----3-----3-----3-----3-----3-----3-----3----------------------
G---2-----2-----2-----2-----4-----4-----4-----4------------------------
D----------------------------------------------------------------------
A----------------------------------------------------------------------
E-2-----2-----2-----2-----3-----3-----3-----3--------------------------

  Dmaj7/F#                      G  
e----------------------------------------------------------------------
B-----2-----2-----2-----2--2----3--------------------------------------
G---2-----2-----2-----2----2----4--------------------------------------
D--------------------------0----0--------------------------------------
A----------------------------------------------------------------------
E-2-----2-----2-----2------2----3--------------------------------------

bridge:
  Dm          Csus2       Bb          Am          A
e----------------------------------------------------------------------
B-------6-----------3-----------3-----------1-----------2--------------
G-----7---7-------5---5-------3---3-------2---2-------2---2------------
D---7-------7---5-------5---3-------3---2-------2---2-------2----------
A-5-----------3-----------1-----------0-----------0--------------------
E----------------------------------------------------------------------

  Dm          Csus2       Bb          Am          A
e------------------------------(0---1)*----(0---1)*--------------------
B-------6-----------3-----------3-----------1-----------2-3-5----------
G-----7---7-------5---5-------3---3-------2---2-------2----------------
D---7-------7---5-------5---3-------3---2-------2---2------------------
A-5-----------3-----------1-----------0-----------0--------------------
E----------------------------------------------------------------------

  Dm          Csus2       Bb          A
e----------------------------------------------------------------------
B-------6-----------3-----------3-----------2-3-5----------------------
G-----7---7-------5---5-------3---3-------2----------------------------
D---7-------7---5-------5---3-------3---2------------------------------
A-5-----------3-----------1-----------0--------------------------------
E----------------------------------------------------------------------
*a note on this section: there are two guitars arrpegiating these chords,
but they don't play exactly the same thing; this is just a rough guide for
this section, arranged for one guitar. the notes in parenthesis are
distinguishable notes played by the second guitar that differ from the main
part.


2nd verse: as before, with this lead over top:
e---------------------------10----12-13--------------------------------
B---------------------------------------11----10-8-8b10----------------
G-7----9-10------------------------------------------------------------
D-----------8----7-5-5b7*----------------------------------------------
A----------------------------------------------------------------------
E----------------------------------------------------------------------
*this bend from G to A is slightly difficult to accomplish on this string
(for me, anyways; i use quite a thick guage), so i just bend the open G
string up to an A, by pressing on the string up above the first fret.


2nd chorus: as before

outro: just play the chorus.

            
            
Suggest correction
Creating personal tab
Creating personal tab
You can edit any tab online and save it as your Personal.

You can edit, replace or remove any tab part or add personal notes – all changes will be seen only by you.

Personal tabs can be accessed anytime from any device, even offline.
Learn more »
comments
print report bad tab
4 comments total. Showing first comments.
0 reply
i_heart_cozzy 10 Jul 30, 2003 08:00 PM

i think this is right but it could be easier i.e. for the first line:
e----1-----0--------------------------
B---3-3---3-3-------4----------3-------
G--2---2-2---2----3---3-0----3---3-0---
D-0-----0--------0----------0----------
A-------------------------------------
E--------------3----------3------------
Something similar can be done for the bridge section when playing the Dminor and Csus2 chords.

0 reply
RustyGold 20 Oct 01, 2005 03:55 PM

incredible!

0 reply
Maitinin 19,543 Jul 05, 2006 03:23 PM

the chords in the bridge are slightly wrong, and tell me again where this fill is played? If it's the fill in the end of the chorus, I'd be more like this:

\0.25/
|--3--|
E +E +Q S S S S E Q E Q.
|-----------------17-15-14h15-14---|----------------|
|----------------------------------|-15---14--------|
|-11-(11)--(11)--------------------|---------16-----|
|-11-(11)--(11)--------------------|----------------|
|-12-(12)--(12)--------------------|----------------|
|----------------------------------|----------------|

But good job anyways!

guest
You may want to rate the tab now too:
select rating
Wanna post a correction for this tab? Suggest correction