Oops, an error
Loading. Please wait.

Tigersuit tab

version 1
version 1

Whole song

Interactive

by Raein
3,941 views 9 this week
1 commentread comment
1 2 3 4 5
x 3
add to favorites
×
Save as Personal and add changes to this tab that will be seen only by you. Learn more ›
×
You can save this tab as Personal to edit and correct it or add notes. All changes will be seen only by you. Learn more »
launch autoscroll
font size
0
reset
how to read this tab
guitar tuner
edit
Autoscroll
slow
fast
+/-
esc
set tempo
stop
Difficulty
e|---------------------------------------------------------------|
B|------8--8-----------------------10-10-10-10-10----------------|
G|-----------11-11-11-11--------11-------------------------------|
D|9--9--9--9--9--9--9--9-----------------------------------------|
A|7--7--7--7--7--7--7--7--10-10-10-10-10-10-10-10----------------|
E|------------------------8--8--8--8--8--8--8--8-----------------|


e|---------------------------------------------------------------|
B|------8--8-----------------------------------------------------|
G|-----------11-11-11-11-----------------------------------------|
D|9--9--9--9--9--9--9--9--9--9--9--9--11-11-11-11----------------|
A|7--7--7--7--7--7--7--7--10-10-10-12-12-12-12-12----------------|
E|------------------------8--8--8--8--10-10-10-10----------------|

e|---------------------------------------------------------------|
B|---------------------------------------------------------------|
G|---------------------------------------------------------------|
D|7-7-7-7-7-7-7-7-7-7-7-7--5-5-5-5-5-5-5-5-5-5-5-5---------------|
A|7-7-7-7-7-7-7-7-7-7-7-7--5-5-5-5-5-5-5-5-5-5-5-5---------------|
E-5-5-5-5-5-5-5-5-5-5-5-5--3-3-3-3-3-3-3-3-3-3-3-3---------------|

At this part theres 2 other guitars and its hard to de code it.

                             5 
                             5
At this part also double the 3 do double of that, so 24.

e|---------------------------------------------------------------|
B|---------------------------------------------------------------|
G|-----------------5-5-5-----------------------------------------|
D|-9-9-9-7-7-7-7-7-----------------------------------------------|
A|-----------------------7-7-10-10-10----------------------------|
E|---------------------------------------------------------------|


Something along the lines of that.

Then heres something to expirement with the outro, i dont know how 
it goes but theres a starter

777777777777777 333333333333333 7777777777777777 555555555555555

            
            
Suggest correction
Creating personal tab
Creating personal tab
You can edit any tab online and save it as your Personal.

You can edit, replace or remove any tab part or add personal notes – all changes will be seen only by you.

Personal tabs can be accessed anytime from any device, even offline.
Learn more »
Give kudos to tab author, rate the tab!
1 2 3 4 5
comments
print report bad tab
1 comment total.
0 reply
Kelduvik 34 Jun 16, 2014 08:29 AM

That bit where it calms down where you've got 99977777 etc is;
e|---------------------------------------------------------------|
B|---------------------------------------------------------------|
G|--------------------------------9-9----------------------------|
D|-9-9-9-7-7-7-7-7-10-10-10-9-9-9--------------------------------| x4
A|-7-7-7-7-7-7-7-7-7--7--7--7-7-7-7-7----------------------------|
E|---------------------------------------------------------------|
Rest is awesome :D

guest
Wanna post a correction for this tab? Suggest correction