Oops, an error
Loading. Please wait.

Enamorar chords

version 1
version 1

Whole song

22 views 1 this week
no commentswrite comment
1 2 3 4 5
3 more votes to show rating
add to favorites
×
Save as Personal and add changes to this tab that will be seen only by you. Learn more ›
×
You can save this tab as Personal to edit and correct it or add notes. All changes will be seen only by you. Learn more »
launch autoscroll
font size
0
reset
transpose
0
reset
display chords
guitar tuner
edit
Autoscroll
slow
fast
+/-
esc
set tempo
stop
Strumming
There is no strumming pattern for this song yet. and get +5 IQ
Cm (x-x-10-8-8-x)     C# (x-x-6-6-6-x)
G (x-x-9-7-8-x)       A# (x-x-8-7-6-x)
D# (x-x-13-12-11-x)   B dim (x-x-x-7-6-7) 
A# II (x-x-12-10-11-x)  G# (x-x-10-8-9-x)

Poner Capo en cuarto sastre

Intro
||--------86h8p6--------------60h6p0---------||
||------8----------8p6p0-----6---------6p0-----||
||---8--------------------7-----------------5--||
||---------------------------------------------||
||---------------------------------------------||
||---------------------------------------------||

                        *                         Dos veces
||-------0---0h6p0------------------6-6-6----6-----||
||----0-------------6p0-----6-----6-------6--------||
||--5---------------------7-----7------------------||
||-------------------------------------------------||
||-------------------------------------------------||
||-------------------------------------------------||


*tocar esta parte la segunda vez
     B dim                        Cm
||---7~~--7----------------------------------------------||
||---6~~--6------8--6--------------------8------8------8-||
||---7~~--7-------------8--7---------8------8------8-----||
||-------------------------------10-----10---------------||
||-------------------------------------------------------||
||-------------------------------------------------------||


Cm                                                        
Enamorarte es imposible aunque digas muchas cosas
                C#
cuando estas conmigo
      Cm                                                   
Yo quisiera atraerte, yo quisiera convencerte 
                              C#           
Pero tu siempre me tomas como amigo

Pre Coro
       Cm     G         Cm                    
Y cada vez lo pones mas dificil
              G            Cm         
Y cada vez me haces sufrir mas
                                        
Pero yo sigo mi empeño
         A#        
Porque quiero ser tu dueño
      G            Cm                
Y te tengo que enamorar

Coro
D#             A# II      G#                  
(Enamorar, enamorar) te quiero vida mia
        G                      
y no me hagas esperar
D#            A# II      G#  
(Enamorar, enamorar) te ofresco el corazon
       G                                   Cm              
no me hagas sufrir mas no me hagas sufrir mas
   sl             sl                    sl                    dos veces
||----------------------------------------------------------------||
||---/8-8h9--8--9/116~---6-8-6--8/9----------6--8-8---6-----6~~--||
||------------------------------------8---8----------------8------||
||----------------------------------------------------------------||
||----------------------------------------------------------------||
||----------------------------------------------------------------||

||------------------------------------------------------------||
||--h8-8p6------------8------8--9--9p8--------------||
||----------8-----8----------------------9-----------||
||------------10---------10-----------------10-------||
||------------------------------------------------------------||
||------------------------------------------------------------||
 
Cm                                        
Cada vez que tu me miras
                                          C#           
yo me animo a decirte vida mia, cuanto te quiero
       Cm                                       
porque te pones tan seria si mi amor es una feria
                                 C#               
y me quita la ilucion de ser tu dueño
       Cm     G         Cm
Y cada vez lo pones mas dificil
              G           Cm  
Y cada vez me haces sufrir mas
                                         
Pero yo sigo mi empeño
        A#                         
Porque quiero ser tu dueño
     G             Cm            
Y te tengo que enamorar

Coro

Intro y solo

Pre Coro 

Coro 

y despues el solo y el intro para terminar


Transcripcion hecha por Sal Joya y Javier Medina.
Si tienen sugerencias mande e-mail a most785@ 
con cancion  bajo la linea sujeta o si tienen otras canciones
de bachata.

            
            
Suggest correction
Creating personal tab
Creating personal tab
You can edit any tab online and save it as your Personal.

You can edit, replace or remove any tab part or add personal notes – all changes will be seen only by you.

Personal tabs can be accessed anytime from any device, even offline.
Learn more »
Give kudos to tab author, rate the tab!
1 2 3 4 5
comments
print report bad tab
guest
Wanna post a correction for this tab? Suggest correction