Oops, an error
Loading. Please wait.

Battle Of Los Angeles album bass

version 2
version 2

Album

334 views 3 this week
no commentswrite comment
1 2 3 4 5
3 more votes to show rating
add to favorites
×
Save as Personal and add changes to this tab that will be seen only by you. Learn more ›
×
You can save this tab as Personal to edit and correct it or add notes. All changes will be seen only by you. Learn more »
launch autoscroll
font size
0
reset
guitar tuner
edit
Autoscroll
slow
fast
+/-
esc
set tempo
stop
------------------------------------------------------------------------------------------------------|
The Battle of Los Angeles - Rage Against The Machine
------------------------------------------------------------------------------------------------------|
Tabbed by: Stancranford
E-mail: simonhawkinsuk@gmail.com

Track 1 - Testify

Tuning: DADG

Guitar Intro

Intro x4

G|-----------------|
D|-----------------|
A|-5^--5^--5^--5^--|
D|-----------------|

Main Riff x2

G|------------------------------|-------------------------------|
D|------------------------------|----------------------------5^-|
A|------------3-----5-3---------|------------0-3-----5-3--------|
D|-0--3-5--0-----0-------0--5-3-|-0--3-5--0-------0-------0-----|

Verse x4

G|-------------------------------------------|
D|---------------------------------3-3-4-4-5-|
A|-5^----------------------------------------|
D|--------------12\-0-/12--12\-0-------------|

Main Riff x2

G|------------------------------|-------------------------------|
D|------------------------------|----------------------------5^-|
A|------------3-----5-3---------|------------0-3-----5-3--------|
D|-0--3-5--0-----0-------0--5-3-|-0--3-5--0-------0-------0-----|

Verse x4

G|-------------------------------------------|
D|---------------------------------3-3-4-4-5-|
A|-5^----------------------------------------|
D|--------------12\-0-/12--12\-0-------------|

Main Riff x2

G|------------------------------|-------------------------------|
D|------------------------------|----------------------------5^-|
A|------------3-----5-3---------|------------0-3-----5-3--------|
D|-0--3-5--0-----0-------0--5-3-|-0--3-5--0-------0-------0-----|

Bridge

G|---------------------------------------------------------------------------------|
D|---------------------------------------------------------------------------------|
A|-5^-------------5^--0-3-----5-3-5--5^---------------5^--0-3-----5-3-5--5-5-5-5-5-|
D|------0--5-3-------------0----------------0--5-3-------------0-------------------|

Guitar Solo

G|--------------------------------|---------------------------------|
D|--------------------------------|------------------------------5^-|
A|-5^----------3------5-3---------|-5^----------0-3-----5-3---------|
D|-----3-5--0-----0--------0--5-3-|-----3-5--0-------0-------0------|

G|--------------------------------|-----------------------------------------|
D|--------------------------------|--------------------------5--3-----------|
A|-------------3------5-3---------|-5^----------0-3-----5-3-------5-4-3-----|
D|-0---3-5--0-----0--------0--5-3-|-----3-5--0-------0------------------5-4-|

Breakdown

G|--------------------------|------------------------------------------|
D|-3------------------------|------------------------------------------|
A|---------3--3-------------|-----------3--5^--5^--5^--5^--5^--5^--5^--|
D|----------------0---------|-3-------3--------------------------------|

Main Riff x2

G|------------------------------|-------------------------------|
D|------------------------------|----------------------------5^-|
A|------------3-----5-3---------|------------0-3-----5-3--------|
D|-0--3-5--0-----0-------0--5-3-|-0--3-5--0-------0-------0-----|

Outro

G|-------------------------|
D|-------------------------|
A|-5^----5^----5^----5^----|
D|-------------------------|


| /  slide up
| \  slide down
| ^  bend note

===============================================================================

Track 2 - Guerrilla Radio

Tuning - EADG

Guitar Intro

Intro

G|---------------------------------|---------------------------------|
D|-4-4-4-4-4-4-4-4-4-4-4-4-4-4-4-4-|-4-4-4-4-4-4-4-4-----------------|
A|---------------------------------|---------------------------------|
E|---------------------------------|-----------------2-2-2-2-2-2-2-2-|

Main Riff
                       x7
G|------------------------|-2-------------1--------------|
D|------------------------|------------------------------|
A|------------------0--2--|------------------------------|
E|-0--2-2--0-2-0-2--------|----2-0-0-0-0----2-0-0-0-0--0-|

Verse 1
                                  x5
G|-2\------------------2-2--3-3--5-5-|-2\--------------2-2--3-3--5-5-|
D|-----------------------------------|-------4p2--0-0----------------|
A|-----------------------------------|-------------------------------|
E|-2\--------------------------------|-2\----------------------------|

G|-2\------------------2-2--3-3--5-5-|-2\---------------|
D|-----------------------------------|------------------|
A|-----------------------------------|------------------|
E|-2\--------------------------------|-2\---------------|

Main Riff
                       x7
G|------------------------|-2-------------1--------------|
D|------------------------|------------------------------|
A|------------------0--2--|------------------------------|
E|-0--2-2--0-2-0-2--------|----2-0-0-0-0----2-0-0-0-0--0-|

Verse 2
                                  x3
G|-2\------------------2-2--3-3--5-5-|-2\---------------|
D|-----------------------------------|------------------|
A|-----------------------------------|------------------|
E|-2\--------------------------------|-2\---------------|

Main Riff
                       x3
G|------------------------|---------------------------|
D|------------------------|-------------------4-4-4-4-|
A|------------------0--2--|---------------------------|
E|-0--2-2--0-2-0-2--------|-0--2-2--0-2-0-2-2---------|

                       x4
G|------------------------|
D|------------------------|
A|------------------0--2--|
E|-0--2-2--0-2-0-2--------|

Rest

Bridge
                                 x3
G|---------------------------------|---------------------------------|
D|-4-4-4-4-4-4-4-4-4-4-4-4-4-4-4-4-|-4-4-4-4-4-4-4-4-----------------|
A|---------------------------------|---------------------------------|
E|---------------------------------|-----------------2-2-2-2-2-2-2-2-|

Guitar Solo
                       x3
G|------------------------|---------------------------|
D|------------------------|-------------------4-4-4-4-|
A|------------------0--2--|---------------------------|
E|-0--2-2--0-2-0-2--------|-0--2-2--0-2---2-----------|

                        x3
G|------------------------|-2---------------1-----------------|
D|------------------------|-----------------------------------|
A|------------------0--2--|-----------------------------------|
E|-0--2-2--0-2-0-2--------|----2-2-2-2-2-2-----2-2-2-2-2-0--2-|

Rest

Outro
                                                x3
G|------------------------------------------------|
D|------------------------------------------------|
A|------------------------------------------------|
E|-0h2-2-2/14---0h2-2-2/14---0h2-2-2/14\----------|

                                                       x3
G|---------------------------------------x-x-x-x-x-x-x-x-|
D|---------------------------------------x-x-x-x-x-x-x-x-|
A|---------------------------------------x-x-x-x-x-x-x-x-|
E|-0h2-2-2/14---0h2-2-2/14---0h2-2-2/14--x-x-x-x-x-x-x-x-|


| /  slide up
| \  slide down
| x  mute note
| h  hammer-on
| p  pull-off

===================================================================================

Track 3 - Calm Like A Bomb

Tuning - EADG

Bass Solo Intro

G|-------0--2-----------------0--0----------|
D|-2--4--------4--2--0--2--4--------2--0----|
A|----------------------------------------4-|
E|------------------------------------------|

G|---------------------------------------|
D|-0--2--4--5--4--2--0----2--------------|
A|----------------------4----4--2--1-----|
E|------------------------------------2--|

G|-------------------------|
D|----0-----2----0--4-0-2--|
A|-2----2-4---4------------|
E|-------------------------|

G|-------0--2-----------------0--0------------|
D|-2--4--------4--2--0--2--4-------4--2-------|
A|--------------------------------------4--0--|
E|--------------------------------------------|

Main riff x8

G|------------/7--|
D|-----9-7-9------|
A|----------------|
E|-7--------------|
  [ ] [     ][   ]

Bridge 1 x4

G|-------------------------|
D|-----9-7-9--9-7-9--9-7-9-|
A|-------------------------|
E|-7-----------------------|
  [ ][     ][      ][     ]

Main riff x4

G|------------/7--|
D|-----9-7-9------|
A|----------------|
E|-7--------------|
  [ ] [     ][   ]

Rest

Bridge 2 x4

G|-----x-x-x-x-x-x-x-x-x-x-x-x-x-x----------------------|
D|-----x-x-x-x-x-x-x-x-x-x-x-x-x-x----9p7---------------|
A|-----x-x-x-x-x-x-x-x-x-x-x-x-x-x-----------------5--5-|
E|-5h7-x-x-x-x-x-x-x-x-x-x-x-x-x-x--7-----7--7--7-------|

Chorus x2

G|------------x-x-x------------------------|
D|------------x-x-x-----------------7------|
A|-------5----x-x-x-5----------5-------5---|
E|-5h7-x---7--x-x-x---7--5h7-x---7-------7-|

Main riff x4

G|------------/7--|
D|-----9-7-9------|
A|----------------|
E|-7--------------|
  [ ] [     ][   ]

Bridge 1 x4

G|-------------------------|
D|-----9-7-9--9-7-9--9-7-9-|
A|-------------------------|
E|-7-----------------------|
  [ ][     ][      ][     ]

Main riff x4

G|------------/7--|
D|-----9-7-9------|
A|----------------|
E|-7--------------|
  [ ] [     ][   ]

Rest

Fill x1

G|-----------|
D|-9-9-9-9-9-|
A|-----------|
E|-----------|

Bridge 2 x4

G|-----x-x-x-x-x-x-x-x-x-x-x-x-x-x----------------------|
D|-----x-x-x-x-x-x-x-x-x-x-x-x-x-x----9p7---------------|
A|-----x-x-x-x-x-x-x-x-x-x-x-x-x-x-----------------5--5-|
E|-5h7-x-x-x-x-x-x-x-x-x-x-x-x-x-x--7-----7--7--7-------|

Chorus x4

G|------------x-x-x------------------------|
D|------------x-x-x-----------------7------|
A|-------5----x-x-x-5----------5-------5---|
E|-5h7-x---7--x-x-x---7--5h7-x---7-------7-|

Bass Solo x2

G|---------------------------------|-------------9-7-9-------------|
D|---------------------------------|-------------------------------|
A|-7-x-x-7-x-x-7-x-x-7-x-x-5-5-5-5-|-7-x-x-7-x-x-------7---5-5-5-5-|
E|---------------------------------|-------------------------------|

Main riff x8

G|------------/7--|
D|-----9-7-9------|
A|----------------|
E|-7--------------|
  [ ] [     ][   ]

Chorus x4

G|------------x-x-x------------------------|
D|------------x-x-x-----------------7------|
A|-------5----x-x-x-5----------5-------5---|
E|-5h7-x---7--x-x-x---7--5h7-x---7-------7-|

Rest to End

| /  slide up
| x  mute note
| h  hammer-on
| p  pull-off
| [  press Wah pedal
| ]  release Wah pedal

=================================================================================

Track 4 - Mic Check

Tuning - EADG

Main Riff x 52

G|--------------|
D|-4---2----4---|
A|--------------|
E|--------------|
  [ ] [ ]  [ ]

Interlude

G|-----------------|-----------------|
D|-4-4-------------|-4-4-------------| x3
A|-----3-3-----0-0-|-----3-3---------|
E|---------2-2-----|---------2-2-2-2-|
                  x1
G|-----------------|
D|-4-4-------------| rest
A|-----3-3-----0-0-|
E|---------2-2-----|

G|-----------------|-----------------|
D|-4-4-------------|-4-4-------------| x4
A|-----3-3-----0-0-|-----3-3---------|
E|---------2-2-----|---------2-2-2-2-|

Rest

Main Riff x 16

G|--------------|
D|-4---2----4---|
A|--------------|
E|--------------|
  [ ] [ ]  [ ]

End x1

G|------|
D|-4----|
A|------|
E|------|
  [ ]


| [  press Wah pedal
| ]  release Wah pedal

====================================================================================

Track 5 - Sleep Now In The Fire

Tuning - EADG

Guitar Intro

Intro x4

G|--------------|
D|---/7----/7---|
A|--------------|
E|--------------|

Main Riff x2
             x3
G|-------------|-----------------|
D|-------------|-----7^------7^--|
A|-------------|-----------------|
E|-5-5-5-3-5-3-|-5-5-----5-5-----|

Verse
                      x15
G|------------------------|------|
D|------------------------|------|
A|------------------------|------|
E|-5-5-3-5--3-5-3-3-3-5-3-|-5----|

Main Riff x2
             x3
G|-------------|-----------------|
D|-------------|-----7^------7^--|
A|-------------|-----------------|
E|-5-5-5-3-5-3-|-5-5-----5-5-----|

Verse
                      x15
G|------------------------|------|
D|------------------------|------|
A|------------------------|------|
E|-5-5-3-5--3-5-3-3-3-5-3-|-5----|

Main Riff x2
             x3
G|-------------|-----------------|
D|-------------|-----7^------7^--|
A|-------------|-----------------|
E|-5-5-5-3-5-3-|-5-5-----5-5-----|

Breakdown
                      x19
G|------------------------|------|
D|------------------------|------|
A|------------------------|------|
E|-5-5-3-5--3-5-3-3-3-5-3-|-5----|

Rest

Guitar Solo x2
             x3
G|-------------|-----------------|
D|-------------|-----7^------7^--|
A|-------------|-----------------|
E|-5-5-5-3-5-3-|-5-5-----5-5-----|

Outro
             x3
G|--------------|-----------------|
D|--------------|-----7^------7^--|
A|---------3----|-----------------|
E|-5-5-3-5----3-|-5-5-----5-5-----|

            x3
G|--------------|----------------------|
D|--------------|-----7^------7^-------|
A|---------3----|----------------------|
E|-5-5-3-5----3-|-5-5-----5-5-----5-5--|

| /  slide up
| ^  bend note

=================================================================================

Track 6 - Born Of A Broken Man

Tuning - DADG

Guitar Intro

Main Riff
                                                 x4
G|-------------------------x-x-x-x------------------|--------|
D|-------------------------x-x-x-x------------------|--------|
A|--------------0----------x-x-x-x-------0----------|--------|
D|-0--6\5-3--0----0--3--0--x-x-x-x-3--0----0--3--0--|-0~~~---|

Rest for Verse

Main Riff
                                                 x4
G|-------------------------x-x-x-x------------------|--------|
D|-------------------------x-x-x-x------------------|--------|
A|--------------0----------x-x-x-x-------0----------|--------|
D|-0--6\5-3--0----0--3--0--x-x-x-x-3--0----0--3--0--|-0~~~---|

Rest for Verse

Main Riff x4

G|-------------------------x-x-x-x------------------|
D|-------------------------x-x-x-x------------------|
A|--------------0----------x-x-x-x-------0----------|
D|-0--6\5-3--0----0--3--0--x-x-x-x-3--0----0--3--0--|

Bridge
                         x3
G|-------------------------|
D|-------------------------|
A|-------------------------|
D|-0-0-0-0-0-0-0-0---------|

G|-------------------------|
D|-------------------------|
A|--------------0----------|
D|-0--6\5-3--0----0--3--0--|

Rest

Fill x2

G|---------------------------------|
D|-0-0-0-0-0-0-0-0-0-0-0-0-0-0-0-0-|
A|---------------------------------|
D|---------------------------------|

Main Riff x4

G|-------------------------x-x-x-x------------------|
D|-------------------------x-x-x-x------------------|
A|--------------0----------x-x-x-x-------0----------|
D|-0--6\5-3--0----0--3--0--x-x-x-x-3--0----0--3--0--|

Outro
                         x3
G|-------------------------|
D|-------------------------|
A|-------------------------|
D|-0-0-0-0-0-0-0-0---------|

G|-------------------------|
D|-------------------------|
A|--------------0----------|
D|-0--6\5-3--0----0--3--0--|

                         x3
G|-------------------------|
D|-------------------------|
A|-------------------------|
D|-0-0-0-0-0-0-0-0---------|

G|----------------------------|
D|----------------------------|
A|--------------0-------------|
D|-0--6\5-3--0----0--3--0~~~~~|

| \  slide down
| x  mute note
| ~  let ring

===============================================================================

Track 7 - Born As Ghosts

Tuning - EADG

Guitar Intro

Fill

G|-12-----|
D|----12--|
A|--------|
E|--------|

Verse
                         x15
G|--------------12--12-----|
D|----------12--12-----12--|
A|-------12----------------|
E|-0--0--------------------|
               [  ]

G|--------------12-------|
D|----------12--12-------|
A|-------12---------x-5--|
E|-0--0------------------|
               [  ]

Chorus x8

G|--------------------|
D|--------------------|
A|-------5--------x-5-|
E|-0--0-----0--0------|

Rest

Verse
                         x11
G|--------------12--12-----|
D|----------12--12-----12--|
A|-------12----------------|
E|-0--0--------------------|
               [  ]

G|--------------12-------|
D|----------12--12-------|
A|-------12---------x-5--|
E|-0--0------------------|
               [  ]

Chorus x8

G|--------------------|
D|--------------------|
A|-------5--------x-5-|
E|-0--0-----0--0------|

Interlude
                                      x3
G|-7/9-7/9-7/9-7/9----------7/9-7/9-7/9-|
D|--------------------------------------|
A|-----------------7-5------------------|
E|---------------------5-0--------------|

G|-7/9-7/9-7/9-7/9----------7/9-7/9-12----|
D|-------------------------------------12-|
A|-----------------7-5--------------------|
E|---------------------5-0----------------|

Guitar Solo x8

G|--------------12--12-----|
D|----------12--12-----12--|
A|-------12----------------|
E|-0--0--------------------|
               [  ]

Rest

Fill

G|------|
D|------|
A|-x-5--|
E|------|

Chorus x8

G|--------------------|
D|--------------------|
A|-------5--------x-5-|
E|-0--0-----0--0------|

End

G|------|
D|------|
A|------|
E|-0~~~-|

| /  slide up
| x  mute note
| ~  let ring
| [  press Wah pedal
| ]  release Wah pedal

====================================================================================

Track 8 - Maria

Tuning - EADG

Guitar Intro

Verse x11

G|-------------------------9-9-9-9-|
D|-------5-5-5-7-7-7-0-0-0---------|
A|-7-7-7---------------------------|
E|---------------------------------|

Rest

Bridge
                             x7
G|-----------------------------|-------------|
D|---------------5-5---5-5---5-|-------------|
A|-7-7---7-x-x-x-----7-----7---|-7-7---7-----|
E|-----7-----------------------|-----7-------|

Chorus x2

G|-------------------------------------------------|
D|-------------------------------------------------|
A|-7-5-7--0-5---5----------------------------------|
E|------------7----5-3-5--0-3-0-3--5-3-5--0-7-5-7--|

Rest

Verse x3

G|-------------------------9-9-9-9-|
D|-------5-5-5-7-7-7-0-0-0---------|
A|-7-7-7---------------------------|
E|---------------------------------|

Rest

Verse x3

G|-------------------------9-9-9-9-|
D|-------5-5-5-7-7-7-0-0-0---------|
A|-7-7-7---------------------------|
E|---------------------------------|

Rest

Verse x3

G|-------------------------9-9-9-9-|
D|-------5-5-5-7-7-7-0-0-0---------|
A|-7-7-7---------------------------|
E|---------------------------------|

Rest

Bridge
                             x7
G|-----------------------------|-------------|
D|---------------5-5---5-5---5-|-------------|
A|-7-7---7-x-x-x-----7-----7---|-7-7---7-----|
E|-----7-----------------------|-----7-------|

Chorus x4

G|-------------------------------------------------|
D|-------------------------------------------------|
A|-7-5-7--0-5---5----------------------------------|
E|------------7----5-3-5--0-3-0-3--5-3-5--0-7-5-7--|

Rest

Guitar Solo x2

G|-------------------------------------------------|
D|-------------------------------------------------|
A|-7-5-7--0-5---5----------------------------------|
E|------------7----5-3-5--0-3-0-3--5-3-5--0-7-5-7--|

G|--------------------------------------------------|
D|-----5--------------------------------------------|
A|-7-5----7-5---5-5---------------------------------|
E|------------7-----5-3-5--0-3-0-3--5-3-5--0-7-5-7--|

Chorus x4

G|-------------------------------------------------|
D|-------------------------------------------------|
A|-7-5-7--0-5---5----------------------------------|
E|------------7----5-3-5--0-3-0-3--5-3-5--0-7-5-7--|


| x  mute note

==================================================================================

Track 9 - Voice Of The Voiceless

Tuning - DADG

Guitar Intro

Bridge

G|-------------------------------|
D|-------------------------------|
A|-5-3-5--3-0-3------------------|
D|---------------5-3-5--3-0-3-5--|

Main Riff
                                            x3
G|----------------------|----------------------|
D|------3---------------|------3--------5-3----|
A|-3h5-----5-3-5-3-5-5--|-3h5-----5-3-5-----5--|
D|----------------------|----------------------|

G|----------------------|-----------------------------|
D|------3---------------|-----------------------------|
A|-3h5-----5-3-5-3-5-5--|-0-5--3-0-3------------------|
D|----------------------|-------------5-3-5--3-0-3-5--|

Verse x2
                 x3
G|-----------------|-----------------|
D|-----------------|-----------------|
A|-----------------|-----------------|
D|-5---8---5p3h5---|-5---0---5p3h5---|

Main Riff x2

G|----------------------|----------------------|
D|------3---------------|------3--------5-3----|
A|-3h5-----5-3-5-3-5-5--|-3h5-----5-3-5-----5--|
D|----------------------|----------------------|

Verse x2
                 x3
G|-----------------|-----------------|
D|-----------------|-----------------|
A|-----------------|-----------------|
D|-5---8---5p3h5---|-5---0---5p3h5---|

Main Riff
                                            x3
G|----------------------|----------------------|
D|------3---------------|------3--------5-3----|
A|-3h5-----5-3-5-3-5-5--|-3h5-----5-3-5-----5--|
D|----------------------|----------------------|

G|----------------------|-----------------------------|
D|------3---------------|-----------------------------|
A|-3h5-----5-3-5-3-5-5--|-0-5--3-0-3------------------|
D|----------------------|-------------5-3-5--3-0-3-5--|

Outro

G|-------|
D|-------|
A|-------|
D|-5~~~~~|

Rest to End

| h  hammer-on
| p  pull-off
| ~  let ring

=============================================================================

Track 10 - New Millennium Homes

Tuning - EADG

Bass Intro x4

G|-----------------|
D|-----------------|
A|----5--------5-7-|
E|-0----5--0-0-----|

Main Riff
                 x7
G|-----------------|-------------------|
D|-----------------|--/5---7---5h7-----|
A|----5-0------5-7-|-----7---7-----7~--|
E|-0-------0-0-----|-0-----------------|

Verse x8

G|-----------------------------|
D|-5~-----------5--------------|
A|-7~-----------7--------------|
E|----0-0--0-0----0--0-0--0-0--|

Bridge x8

G|-------------------------|
D|-------------------------|
A|--------7-7-7------------|
E|-0-0-0---------0-0-0-----|

Main Riff
                 x7
G|-----------------|---------------|
D|-----------------|--/5---7---5h7-|
A|----5-0------5-7-|-----7---7-----|
E|-0-------0-0-----|-0-------------|

Verse
                             x4
G|-----------------------------|
D|-5~-----------5--------------|
A|-7~-----------7--------------|
E|----0-0--0-0----0--0-0--0-0--|

                                      x4
G|--------------------------------------|
D|----------5~-----------5--------------|
A|-----0h5--7~-----------7--------------|
E|-0h7---------0-0--0-0----0--0-0--0-0--|

Bridge x8

G|-------------------------|
D|-------------------------|
A|--------7-7-7------------|
E|-0-0-0---------0-0-0-----|

Guitar Solo
                 x4
G|-----------------|----------------|
D|-----------------|---/7-5---------|
A|----5-0------5-7-|------------5-7-|
E|-0-------0-0-----|-0------0-0-----|

G|------------------|----------------|
D|---/7-5---7-----5-|---/7-5---------|
A|--------5---5-7---|------------5-7-|
E|-0----------------|-0------0-0-----|

G|---------------9-9-9-9-|
D|---5---7-7-------------|
A|-----7-----7-7---------|
E|-0---------------------|

Main Riff
                 x7
G|-----------------|-------------------|
D|-----------------|--/5---7---5h7-----|
A|----5-0------5-7-|-----7---7-----7~--|
E|-0-------0-0-----|-0-----------------|

| /  slide up
| h  hammer-on
| ~  let ring

===============================================================================

Track 11 - Ashes In The Fall

Tuning - DADG

Guitar Intro

Main Riff x12 (Fade in from quiet)

G|-5-7----5-7----5-7----5-7----|
D|-----0------0------0------0--|
A|-----------------------------|
D|-----------------------------|

Rest

Chorus

G|-------------------------|-------------------------|
D|-------------------------|-------------------------|
A|---5---------------------|-------------------------|
D|-0---0-0-0-0-0-0-0-0-0-0-|-0-0-0-0-0-0-0-0-0-0-0-0-|

Main Riff x16

G|-5-7----5-7----5-7----5-7----|
D|-----0------0------0------0--|
A|-----------------------------|
D|-----------------------------|

Rest

Chorus

G|-------------------------|-------------------------|
D|-------------------------|-------------------------|
A|-------------------------|-------------------------|
D|-0-0-0-0-0-0-0-0-0-0-0-0-|-0-0-0-0-0-0-0-0-0-0-0-0-|

Main Riff x8 (Fade in from quiet)

G|-5-7----5-7----5-7----5-7----|
D|-----0------0------0------0--|
A|-----------------------------|
D|-----------------------------|

Heavy Riff x16

G|------------------------------|
D|------------------------------|
A|-3-5----3-5----3-5----3-5-----|
D|-----0------0------0-------0--|

Rest

Chorus

G|-------------------------|-------------------------|
D|-------------------------|-------------------------|
A|-------------------------|-------------------------|
D|-0-0-0-0-0-0-0-0-0-0-0-0-|-0-0-0-0-0-0-0-0-0-0-0-0-|

Outro to Fade Out (using Delay)

G|-------|
D|-------|
A|-------|
D|-0~~~~~|

| ~  let ring

====================================================================================

Track 12 - War Within A Breath

Tuning - Db,Ab,Db,Gb

Intro x4

Gb|------------------|
Db|------------0-3p0-|
Ab|------------------|
Db|------------------|
              [     ]

Main Riff x16

Gb|-----------------------|
Db|-x--x-x-x--x-x-x-0-3p0-|
Ab|-----------------------|
Db|-----------------------|
                   [     ]

Chorus x8

Gb|-------------------|
Db|-------------------|
Ab|----------3--5-----|
Db|-0--3--5--------5--|

Bridge x4

Gb|------------------|
Db|------------0-3p0-|
Ab|------------------|
Db|------------------|
              [     ]

Main Riff x16

Gb|-----------------------|
Db|-x--x-x-x--x-x-x-0-3p0-|
Ab|-----------------------|
Db|-----------------------|
                   [     ]

Pre Chorus x2

Gb|-x-x-x-x-x-x-x-x-x-x-x-x-x-x-x-x-|
Db|-x-x-x-x-x-x-x-x-x-x-x-x-x-x-x-x-|
Ab|-x-x-x-x-x-x-x-x-x-x-x-x-x-x-x-x-|
Db|-x-x-x-x-x-x-x-x-x-x-x-x-x-x-x-x-|

Chorus x8

Gb|-------------------|
Db|-------------------|
Ab|----------3--5-----|
Db|-0--3--5--------5--|

Rest

Chorus x16

Gb|-------------------|
Db|-------------------|
Ab|----------3--5-----|
Db|-0--3--5--------5--|

End

Gb|-----|
Db|-----|
Ab|-----|
Db|-0~~~|

| p  pull-off
| x  mute note
| ~  let ring
| [  press Wah pedal
| ]  release Wah pedal

            
            
Suggest correction
Creating personal tab
Creating personal tab
You can edit any tab online and save it as your Personal.

You can edit, replace or remove any tab part or add personal notes – all changes will be seen only by you.

Personal tabs can be accessed anytime from any device, even offline.
Learn more »
Give kudos to tab author, rate the tab!
1 2 3 4 5
comments
print report bad tab
guest
You may want to rate the tab now too:
select rating
Wanna post a correction for this tab? Suggest correction