Oops, an error
Loading. Please wait.

Im Housin bass

version 4
version 4

Interactive

18,587 views 15 this week
2 commentsread comments
1 2 3 4 5
x 10
add to favorites
×
Save as Personal and add changes to this tab that will be seen only by you. Learn more ›
×
You can save this tab as Personal to edit and correct it or add notes. All changes will be seen only by you. Learn more »
launch autoscroll
font size
0
reset
guitar tuner
edit
Autoscroll
slow
fast
+/-
esc
set tempo
stop
Author
Difficulty
intermediate
I’m Housin Bass Tab
Rage Against the Machine.

Most tabs posted online mess up the main riff. Although it can all be played on the E 
it sounds much better and flows more the way I’ve tabbed it. This is also the way Tim 
plays it. Ive also tabbed the rest of the song in an easy format.


Main Riff 1
G|-/12-9------------------------------------------|
D|-------13-12-9----------------------------------|
A|---------------13-10h12-------------------------|
E|------------------------12----------------------|

Main Riff 2
G|-/12-9------------------------------------------|
D|-------13-12-9----------------------------------|
A|---------------13-------------------------------|
E|--------------------0-0-------------------------|

These first two parts alternate until the bridge.

[Bridge]
G|------------------------------------------------|
D|------------------------------------------------|
A|------------------------------------------------| x1
E|-0-0---0-0---0-0---0-0--------------------------|

[Bridge 2]
G|------------------------------------------------|
D|------------------------------------------------|
A|-7---7---7—--7----------------------------------| x4
E|---0---0---0---0--------------------------------|

Alternate bridge 2 (Usually played by guitar)
G|------------------------------------------------|
D|------------------------------------------------|
A|-7---7---7—----5-7-10---------------------------|(x4)
E|---0---0---0-0----------------------------------|


[Chorus]
G|------------------------------------------------|
D|------------------------------------------------|
A|-7-7-----5---5----------------------------------| x8
E|-----5-7-------7-5-3----------------------------|

All of the above is played and then repeats once. Afterwards Bridge 2 is played 4x. The 
then plays this solo backing part at slightly less volume:

[During Solo]
G|------------------------------------------------|
D|------------------------------------------------|
A|-7---7---7—----5-7-10---------------------------| x8
E|---0---0---0-0----------------------------------|

[Chorus]
G|------------------------------------------------|
D|------------------------------------------------|
A|-7-7-----5---5----------------------------------| x8
E|-----5-7-------7-5-3----------------------------|

[Outro]
G|------------------------------------------------|
D|------------------------------------------------|
A|------------------------------------------------| x1
E|-0-0---0-0---0-0---0-0--------------------------|



************************************

/ - Slide Up
h - Hammer on

************************************

            
            
Suggest correction
Creating personal tab
Creating personal tab
You can edit any tab online and save it as your Personal.

You can edit, replace or remove any tab part or add personal notes – all changes will be seen only by you.

Personal tabs can be accessed anytime from any device, even offline.
Learn more »
comments
print report bad tab
2 comments total.
0 reply
stevemch 10 Mar 27, 2010 10:36 AM

cheers man great tab

0 reply
Raccio14 292 Dec 03, 2010 05:27 PM

Not bad, as it's dead on, however it's MUCH easier to play the same notes in the main riffs as so:

Main Riff
G|-/12-9-7---------------------------------|
D|---------9-8-7-------7-------------------|
A|---------------13-10---------------------|
E|-----------------------12----------------|

Same thing on part two except for the last two notes, obviously.

Additionally, it can ALSO be played like so:

Main Riff
G|-/12-9-7-------------------------------------|
D|---------9-8-7-------------------------------|
A|---------------10h12-------------------------|
E|---------------------12----------------------|

I'll use both.

5 stars for accuracy though.

guest
You may want to rate the tab now too:
select rating
Wanna post a correction for this tab? Suggest correction