Oops, an error
Loading. Please wait.

No Shelter tab

version 1
version 1

Whole song

Interactive

5,495 views 3 this week
5 commentsread comments
1 2 3 4 5
x 6
add to favorites
×
Save as Personal and add changes to this tab that will be seen only by you. Learn more ›
×
You can save this tab as Personal to edit and correct it or add notes. All changes will be seen only by you. Learn more »
launch autoscroll
font size
0
reset
how to read this tab
guitar tuner
edit
Autoscroll
slow
fast
+/-
esc
set tempo
stop
Rage Against The Machine, No Shelter
Andreas Eriksson, ydnefan@hotmail.com

Intro/Chorus

E|--------------------------------------|
B|--------------------------------------| w/Delay
G|-----------------------x-x-x-x-x-x-x--|
D|-----------------------x-x-x-x-x-x-x--|
A|--10/12--15-15-10/10---x-x-x-x-x-x-x--|
D|--10/12--15-15-10/12---x-x-x-x-x-x-x--|
       
Verse

E|--------------|
B|--------------|  Wah Wah
G|--------------|  
D|--------------|
A|--33-5-3h5p3--|
D|--------------|

Bridge

E|--~16-~16-~16-~16-~16-~16-~16-^~~16--|
B|-------------------------------------|  ~=Vibrato
G|-------------------------------------|  ^=Bend
D|-------------------------------------|
A|-------------------------------------|
D|-------------------------------------|

Outro

E|-------------------------------|
B|-------------------------------|
G|-------------------------------|
D|-------------3-----------------|
A|--5--3----------5--3--5--------|
D|-------3-0---------------3--5--|

And it ends with:

E|-----|
B|-----|
G|-----|
D|--0--|
A|--0--|
D|--0--|

Now, thats the sound


            
            
Suggest correction
Creating personal tab
Creating personal tab
You can edit any tab online and save it as your Personal.

You can edit, replace or remove any tab part or add personal notes – all changes will be seen only by you.

Personal tabs can be accessed anytime from any device, even offline.
Learn more »
comments
print report bad tab
5 comments total. Showing first comments.
+1 reply
jimmy_wa 10 May 05, 2002 08:00 PM

this is a fuckn shit tab, who the fuck rated this trash

0 reply
bucketface86 10 Jul 11, 2002 08:00 PM

the intro doesn't have delay and it would sound rediculously shitty if you played it at the 12th fret...try this
G|--------5--------|
D|---5/7--3--5/7---|
A|---3/5-----3/5---|
D|-----------------|

0 reply
DMRocks_SOAD 30 May 29, 2004 08:00 PM

The intro is correct minus the delay. I have the final DVD and this is how he plays it. as for the solo...

guest
Wanna post a correction for this tab? Suggest correction