Oops, an error
Loading. Please wait.

Renegades album bass

version 2
version 2

Album

1,230 views 1 this week
no commentswrite comment
1 2 3 4 5
3 more votes to show rating
add to favorites
×
Save as Personal and add changes to this tab that will be seen only by you. Learn more ›
×
You can save this tab as Personal to edit and correct it or add notes. All changes will be seen only by you. Learn more »
launch autoscroll
font size
0
reset
guitar tuner
edit
Autoscroll
slow
fast
+/-
esc
set tempo
stop
Album: Renegades
Artist: Rage Against The Machine
Tabbed by: BassPlayer275

Should all be *close to* perfect. I'm not really sure about all of it though, but its a start.


Track 1:

Title: Microphone Fiend
Artist: Rage Against The Machine
Tuning: Drop-D (DADG)

 Verse:
G|-----------------------------|
D|-----------------------------|
A|-----------------------------|
D|-/4-/4--/7-/4--/4-/4---------|

 PreChorus:           Chorus:
G|-------------------||----------------------------|
D|-------------------||----------------2-4---------|
A|-0----0----0-0-0-0-||--------------0-------------|
D|-------------------||-4--x-x-2h4--------2-4-2----|

 Bridge:
G|--------------------------------|
D|----------------------2-4-------|
A|-----x0-----x0-----x0-----------|
D|-2h4----2h4----2h4--------2-4-2-|

 Interlude:
G|---------------------------||---------------|
D|---------------------------||---------------|
A|---------------------------||---------------|
D|-4^-x-x--x-2-3-4--x-x-x-x-||-4^-4^-4^-4^----|

Track 2:

Title: Pistol Grip Pump
Artist: Rage Against The Machine
Tuning: DADG

 Main Riff:
G|-----------------------|
D|-----------------------|
A|-----------------------|
D|-/7---------0---0------|

Track 3:

Title: Kick Out The Jams
Artist: Rage Against The Machine
Tuning: Drop-D (DADG)

 Intro:
G|--------------|-----------|
D|--------------|-----------|
A|---0-0-0-2----|--12-/-----|
D|--------------|-----------|

 Verse:
G|---------------------|    |-------------------|
D|---------------------|    |-----5-7-8p7h8p7-5-|
A|---------------------| or |-7-7---------------|
D|-2-2-5-7---8p7h8p7-5-|    |-------------------|
                          (same thing, octave higher)
 Verse Variation:
G|---------------------------------|
D|-----5/12-12-12-------5/14-14-14-|
A|-7-7--------------7-7------------|
D|---------------------------------|

 Chorus:
G|---------------------------------------------------|
D|---------------------------------------------------|
A|-0-0-0-2-------------------------------------------|
D|------------0---2---0-0-0-0-0-0-0-0-0--------12----|

 Bridge:
G|---------------------------------|
D|---------------------------------|
A|-7-7-7-7-7-7-7-7-7-7-7-7-7-7-7-7-|
D|---------------------------------|

Track 4:

Title: Renegades of Funk
Artist: Rage Against The Machine
Tuning: Drop-D (DADG)

 Intro/Chorus:
G|--------------------------------|
D|--------------------------------|
A|-5----------------5-------------|
D|---5--3----3~-------5--0----0~--|

 Verse:
G|----------------------------|
D|----------------------------|
A|-3-5----3-5----3-5----------|
D|-----0------0------0--3--5--|

 Bridge1:               Bridge2:
G|---------------------||-----------------|
D|---------------------||-----------------|
A|-5------------5------||-----------------|
D|---0-0----------0-0--||-5-7--------5-7--|

 Outro part1:                  part2:
G|----------------------------||----------------------------|
D|----------------------------||----------------------------|
A|-3-5----3-5----3-5----------||-3-5----8-5----3-5----------|
D|-----0------0------0--3--5--||-----0------0------0--3--5--|

Track 5:

Title: Beautiful World

***** NO BASS *****

Track 6:

Title: I'm Housin'
Artist: Rage Against The Machine
Tuning: EADG


 Intro/Verse:
G|---|-------------------------------|
D|---|-/17---------------------------|
A|---|-------19-18-17-14-13-11h12----|
E|-0-|----------------------------0--|

G|------------------------------|
D|-/17--------------------------|
A|-------19-18-17-14-13---------|
E|------------------------0-0---|

 PreChorus:
G|-----------|--------------------------|
D|-----------|--------------------------|
A|-----------|-7----7----7----7-----10--|
E|-0-0---0-0-|---0----0----0----0-0-----|

 PreChorus Variation:       Chorus:
G|-------------------------||--------------------|
D|-------------------------||--------------------|
A|-7----7----7----7-----5--||-7-7-----5--5-------|
E|---0----0----0----0-0----||-----5-7------7-5-3-|

Track 7:

Title: In My Eyes
Artist: Rage Against The Machine
Tuning: EADG

 Intro:
G|--------------|---------|-------------------------|
D|--------------|---------|-------------------------|
A|-7-6-5--0-5-0-|-7-7-7-7-|-77777777777777777777777-|
E|--------------|---------|-------------------------|

G|--------------------9~~~~-|
D|-----------9~~~---9-------|
A|--------------------------|
E|-0~~~~~-------------------|

 Verse:
G|----------------------------------|
D|----------------------------------|
A|-3-----6-----8-8------------------|
E|----5-----6-------3-3-3-3-3-3-3-3-|

 Chorus:
G|-------------------------------------|
D|-------------------------------------|
A|---5-5--5----5-5--5--0-0-0-0-2-2-2-2-|
E|-2---------2-------------------------|

G|-----------------------------|
D|-----------------------------|
A|------------------5--5--5--5-|
E|-0-0-0-0-0-0-0-0-------------|

Track 8:

Title: How I Could Just Kill A Man
Artist: Rage Against The Machine
Tuning: Drop-D (DADG)

 Intro/Verse:
G|------------------|-----------------|
D|------------------|-----------------|
A|-x3-x5------------|-x3-x5-----------|
D|--------x0h3-x5-0-|--------x0-3-5-0-|

 Chorus:
G|-----------------------------|-------|
D|-----------------------------|-3h5p3-|
A|---5---------3---------------|-------|
D|-0---0-3--5----0--0--0--0--0-|-------|

 Bridge:           Interlude:
G|----------------||-5-2-0---0-----0-5--------|
D|----------------||-------3---3-0------------|
A|----------------||--------------------------|
D|-0--0--0--0--0--||--------------------x-0-0-|

 Build-up: (before last chorus)
G|-----------------|
D|-----------------|
A|-----------------|
D|-0-0-0-0-0-0-0-0-|

Track 9:

Title: The Ghost of Tom Joad
Artist: Rage Against The Machine
Tuning: Drop-D (DADG)

 Intro/Chorus:
G|---------------------------|-----|
D|---------------------------|-----|
A|----5-3-0---------3----0-3-|--5--|
D|-0--------5-3-0------5-----|--0--|

 Verse:
G|--------------------|
D|--------------------|
A|--5----3----0-3-----|
D|-----------5--------|

Track 10:

Title: Down On The Street
Artist: Rage Against The Machine
Tuning: EADG

 Verse:
G|-----------------------------------------------------------|
D|------------------------7-7-5------------------------------|
A|-7-x-x-x--7-7-5-7-x-x-x-------7-x-x-x-7-7-5-7-x-x----------|
E|--------------------------------------------------0-3-5-3--|

 Chorus:
G|-----------------------------------------------------------|
D|-------------------------------------------7-7-5-5-7-7-5---|
A|-7-7-5-5-------7-7-5-5-------7-7-5-5---------------------7-|
E|---------5-5-3---------3-3-5---------3-5-5-----------------|

Track 11:

Title: Street Fighting Man
Artist: Rage Against The Machine
Tuning: Drop-D (DADG)

 Verse/Chorus:
G|--------------------|
D|--------------------|
A|------5-------3-----|
D|-0000-----0000------|

 PreChorus:
G|-----------------|-7777-5555-------------|
D|-----------------|-----------7777-5555---|
A|-----------------|-----------------------|
D|-7--7--x10-x12-|-------------------------|

 Bridge:
G|-------------------------------|
D|-------------------------------|
A|-5-5-5-5-5-5-5-5-5-5-5-5-5-5-5-|
D|-------------------------------|

Track 12:

Title: Maggie's Farm
Artist: Rage Against The Machine
Tuning: DADG

 Intro:
G|-----------------------------|------------------------------|
D|---------0----------0------2-|-----0------------0-----2-0---|
A|-7--2-2---2-2-2--2---2--x---|-2-2---2-2-2--0-2---2-0--------|
D|-----------------------------|------------------------------|

 Verse part1:               part2:
G|-------------|-----------||----------------------------|
D|-----0-------|---0-----2-||----------------------------|
A|-2-2---2-2-2-|-2---2-2---||-2-2--x-x-2--x-x-2--x-x-x-x-|
D|-------------|-----------||----------------------------|

 part3:
G|-2-2-2-2-2-2-2-2-------------------|
D|-----------------2-2-2-2-2-2-2-2-2-|
A|-----------------------------------|
D|-----------------------------------|

 Interlude part1:                   part2:
G|---------------------------------||-------------------------|
D|---------------------------------||-------------------------|
A|-0h2-2-2-2h3-3-3-3h4-4-4-4h5-5-5-||-5-7-------5-7-----------|
D|---------------------------------||-------------------------|

 Outro:
G|---------------||-------------------------|
D|-----0---------||-----0----------0------2-|
A|-0-2---2-0-----||-2-2---2-2-2--2---2--x---|
D|-----------2-0-||-------------------------|

G|----------------------------||------------------|
D|-----0------------0---------||-----0---------0--|
A|-2-2---2-2-2--0-2---2-0-----||-2-2---2-2---0----|
D|------------------------2-0-||------------------|

            
            
Suggest correction
Creating personal tab
Creating personal tab
You can edit any tab online and save it as your Personal.

You can edit, replace or remove any tab part or add personal notes – all changes will be seen only by you.

Personal tabs can be accessed anytime from any device, even offline.
Learn more »
Give kudos to tab author, rate the tab!
1 2 3 4 5
comments
print report bad tab
guest
You may want to rate the tab now too:
select rating
Wanna post a correction for this tab? Suggest correction