Oops, an error
Loading. Please wait.

Renegades Of Funk tab

version 1
version 1

Whole song

Interactive

32,745 views 45 this week
4 commentsread comments
1 2 3 4 5
x 12
add to favorites
×
Save as Personal and add changes to this tab that will be seen only by you. Learn more ›
×
You can save this tab as Personal to edit and correct it or add notes. All changes will be seen only by you. Learn more »
launch autoscroll
font size
0
reset
how to read this tab
guitar tuner
edit
Autoscroll
slow
fast
+/-
esc
set tempo
stop
Author
Unregistered
Renegades Of Funk
R A G E   A G A I N S T   T H E   M A C H I N E
Tabbed By Aaron Bridgeman (rokken@sicness.net)
http://bogans.arecool.net
New Rage single.
Drop D tuning (D A D G B e)

[INTRO]
(Tom uses an effect here)
e|-12-8-12-8-12-8-12-8-13-10-13-10-13-10-13-10-|
B|---------------------------------------------|
G|---------------------------------------------|
D|---------------------------------------------|
A|---------------------------------------------|
D|---------------------------------------------|

[VERSE]
e|---------------------------------|
B|---------------------------------|
G|---------------------------------|
D|-5/7---5/7---5/7-----------------|
A|-3/5-0-3/5-0-3/5-0-3/5~~~--------|
D|-----0-----0-----0-3/5~~~--------|

[CHORUS]
e|-----3-5-8~~-3-----|
B|-3-6-----------3~~-|
G|-------------------|
D|-------------------|
A|-------------------|
D|-------------------|

[ANOTHER BIT USED IN VERSE OR THEREABOUTS]
e|-------|
B|-------|
G|-------| (repeated a few times)
D|-------|
A|-5/7~~-|
D|-5/7~~-|

[BREAKDOWN]
e|------------------------|
B|------------------------|
G|-4- bend this note -----|
D|--- up and down slowly -|
A|------------------------|
D|------------------------|

************************************

| /  Slide up
| ~  Sustain

************************************

            
            
Suggest correction
Creating personal tab
Creating personal tab
You can edit any tab online and save it as your Personal.

You can edit, replace or remove any tab part or add personal notes – all changes will be seen only by you.

Personal tabs can be accessed anytime from any device, even offline.
Learn more »
comments
print report bad tab
4 comments total. Showing first comments.
+2 reply
dj84 15 Mar 06, 2008 07:47 PM

nice tab.
but I think the bit that goes

----3-5-8~~-3-----
3-6-----------3~~-
------------------
------------------
------------------
------------------

should go like this

--------3-3-5-5-8~~-3------
3-3-6-6---------------3~~--
---------------------------
---------------------------
---------------------------
---------------------------

the rest is all good.

ohh I lost my pick.

+1 reply
guitarrocker54 10 Aug 31, 2008 06:15 AM

ok u lost ur pick so wat........ Oh ya tat wuz exellent

+1 reply
bassmasta.1515 10 Apr 19, 2010 10:22 AM

this is the best tab for this song. i don't know how the others got 5

guest
Wanna post a correction for this tab? Suggest correction