Oops, an error
Loading. Please wait.

Revolver bass

version 2
version 2

Whole song

Interactive

4,909 views 6 this week
3 commentsread comments
1 2 3 4 5
x 5
add to favorites
×
Save as Personal and add changes to this tab that will be seen only by you. Learn more ›
×
You can save this tab as Personal to edit and correct it or add notes. All changes will be seen only by you. Learn more »
launch autoscroll
font size
0
reset
guitar tuner
edit
Autoscroll
slow
fast
+/-
esc
set tempo
stop
Band:  Rage against the Machine	
Song:  Revolver
CD:    Evil Empire
                                        (by specter@tir.com)

Blah blah blah umm, lemme think....umm, dropped-D tunning. thats pretty much
all..If it don't sound right...just wine and fix it your own damn self!


**Kool Guitar Effects Opening**

BASS FIG 1a
G:---------------------------------------------------------|
D:--------------------------3------------------------------|
A:--3-4-5----------3--5-3-5-----3-4-5----------3--5-3-5----|
E:--------0--3--5---------------------0--3--5-----------0--|


BASS FIG 1b
G:--------------------------------------------------------------|
D:---------------------------3h4p3------------------------------|
A:--3-4-5----------3--5-3-5--------3-4-5----------3--5-3-5------|
E:--------0--3--5------------------------0--3--5-----------0----|


G:----------------------------------------------------------|
D:---------------------------3------------------------------|
A:--3-4-5----------3--5-3-5-----3-4-5----------3--5-3-5-----|
E:--------0--3--5---------------------0--3--5-----------0---|


G:--------------------------------------------------------|
D:--------------------------3-----------------------------|
A:--3-4-5----------3--5-3-5-----3-4-5----------3--5-3-5---|
E:--------0--3--5---------------------0--3--5-----------0-|

grad> bend string up and (x3)
incr volume
(BASS FIG. 2)
G:------------------------19-19-19-19-19-19-19-19-19----|
D:*----------------------------------------------------*|
A:*----------------------------------------------------*|
E:---0--------------------(0)---------------------------|
*let D note ring


(end fig. 2)
G:------------------10---12---14-----|--------------|
D:-----------------------------------|--fig-2-(x2)--|
A:-----------------------------------|--------------|
E:--0---------------(0)--------------|--------------|


Bridge (x4)  Fill 1
G:-----------------------------------------|--------------|
D:*---------------------------------------*|--------------|
A:*-5-------------------------------------*|-5--5-5-5--5--|
E:----0--3h5-0--0-3h5-0--0-3h5-0--0-3h5-0--|--------------|


1, 2, 3  4.
Chorus
G:----------------------------------------|-----------|---------|---------|
D:*----------3-------3-------3-----------*|-(3)-rest--|-fig-1a--|-fig-1b--|
A:*--5-0-3h5---0-3h5---0-3h5-------------*|-----------|---------|---------|
E:-----------------------------0-3h5------|-----------|---------|---------|

G:--------------|---------------|----------|---------------|--------------|
D:--Fig-2-(x3)--|--Bridge-(x4)--|--Fill-1--|--Chorus-(x8)--|--Fig-1a-(x3)-|
A:--------------|---------------|----------|---------------|-w/distortion-|
E:--------------|---------------|----------|---------------|--------------|

G:----------------------------------------------------------|
D:--------------------------3-------------------------------|
A:--3-4-5----------3--5-3-5-----3-4-5---3-4-5--3--5-3-5-----|
E:--------0--3--5---------------------0-----------------0---|

 (x3)
G:---------------------|--------------|----------------|
D:---------------------|-Bass-Fill-1--|--Chorus-(x8)---|
A:---------------------|--------------|--w/-distortion-|
E:--0------------------|--------------|----------------|


Ohh wow, Thats a pretty kool song, ohh well I'm sure you wouldn't read anything else
i put up here so ohh well....umm i did both these tabs on a fricken note pad cuz i am
bored off of my ass....blah blah blah this song is kool...well enjoy my contribution.

            
            
Suggest correction
Creating personal tab
Creating personal tab
You can edit any tab online and save it as your Personal.

You can edit, replace or remove any tab part or add personal notes – all changes will be seen only by you.

Personal tabs can be accessed anytime from any device, even offline.
Learn more »
comments
print report bad tab
3 comments total.
0 reply
RATM_timc 110 Feb 05, 2003 07:00 PM

Yet again...more complicated than it is.

0 reply
Basstard21 587 Dec 28, 2007 05:13 PM

BASS FIG
1a
G:-----|
D:-----3-----
-----|
A:--3-4-5-----3--5-3-5---
--3-4-5-----3--5-3-5----|

E:-----0--3--5-----0--3--
5-----
-----0--|
this should be 1^

0 reply
Basstard21 587 Dec 28, 2007 05:15 PM

alrite sorry i messed it up twice...the fig. 1a/1b should end on an F, not an E as it says

guest
Wanna post a correction for this tab? Suggest correction