Oops, an error
Loading. Please wait.

Township Rebellion bass

version 2
version 2

Whole song

Interactive

3,103 views 1 this week
5 commentsread comments
1 2 3 4 5
x 6
add to favorites
×
Save as Personal and add changes to this tab that will be seen only by you. Learn more ›
×
You can save this tab as Personal to edit and correct it or add notes. All changes will be seen only by you. Learn more »
launch autoscroll
font size
0
reset
guitar tuner
edit
Autoscroll
slow
fast
+/-
esc
set tempo
stop
Author
Band:Rage Against the Machine
Song:Township Rebellion
Bassist:Tim Commerford
Album:Self Titled
Tuning:Standard

This is a pretty fun song to play.  One of my first tabs so i hope every one enjoys.
Intro
G---------
D---------
A-5-55-5-5
E---------

Verse(listen 4 timing)
G------------
D------------
A-5b-5b5b-5b-
E------------

Chorus(why stand on a silent platform...)
G------------------------------------------------------------------------------
D------------------------------------------------------------------------5b5-32
A-3-5-0---3-5-0---3-5--3-5-0--3-5-0---5-0-3-5-0--3-5-0--3-5-3-5-0---3-5-0------
E-------6-------6------------6------6-----------6------6----------6------------

Outro
G-------------
D-------------
A-2-3-2-3-0---
E----------5-3

Thats pretty much it so enjoy.
RATM_timc

            
            
Suggest correction
Creating personal tab
Creating personal tab
You can edit any tab online and save it as your Personal.

You can edit, replace or remove any tab part or add personal notes – all changes will be seen only by you.

Personal tabs can be accessed anytime from any device, even offline.
Learn more »
comments
print report bad tab
5 comments total. Showing first comments.
0 reply
piequat 803 Jun 07, 2003 08:00 PM

Mate, this is in D.

:)

0 reply
RATM_timc 110 Jun 16, 2003 08:00 PM

oopps ur right

0 reply
nicklopeke 31 Jan 26, 2007 04:10 PM

Chorus is wrong and your missing the bridge; not the bass during the guitar solo. Bridge bass goes as follows:

G|----------------|
D|----------------| Listen for rythmn
A|-55555----------|
D|-------0-00-3-5-|

guest
You may want to rate the tab now too:
select rating
Wanna post a correction for this tab? Suggest correction