Oops, an error
Loading. Please wait.

Township Rebellion bass

version 3
version 3

Whole song

Interactive

7,563 views 12 this week
3 commentsread comments
1 2 3 4 5
x 9
add to favorites
×
Save as Personal and add changes to this tab that will be seen only by you. Learn more ›
×
You can save this tab as Personal to edit and correct it or add notes. All changes will be seen only by you. Learn more »
launch autoscroll
font size
0
reset
guitar tuner
edit
Autoscroll
slow
fast
+/-
esc
set tempo
stop
Author
-------------------------------------------------------------------------------
     TOWNSHIP REBELLION - Rage Against the Machine
-------------------------------------------------------------------------------

Tabbed By : Kevin

Tuning:Drop D

intro:
0:00
G|-----------|
D|-----------|
A|-5--5-5-55-|
D|-----------|

verse:
0:04
G|------------------------|
D|------------------------|x8
A|-5b--5b-5b-55b--5b-5b-5-|
D|------------------------|

chorus:                                         _ 
0:32                                             |
G|----------------------------------------|      |              
D|----------------------------------------|      |               
A|-3h5-----3h5---------3h5-----3h5-----5--|      |               
D|-----0-0-----0-0-3-5-----0-0-----0-0--2-|      |x2                
                                                 |               
G|---------------------------------------------| |
D|-----------------------------------/7--5-3---| |
A|-3h5-----3h5---------3h5-----3h5-----------5-| |
D|-----0-0-----0-0-3-5-----0-0-----0-----------| |
                                                _|
G|-----------|
D|-----------|
A|-5--5-5-55-|
D|-----------|

verse:
1:04
G|------------------------|
D|------------------------|x4
A|-5b--5b-5b-55b--5b-5b-5-|
D|------------------------|

rest for 4 measures
                                                
chorus:                                         _
1:34                                             |
G|----------------------------------------|      |              
D|----------------------------------------|      |               
A|-3h5-----3h5---------3h5-----3h5-----5--|      |               
D|-----0-0-----0-0-3-5-----0-0-----0-0--2-|      |x2                
                                                 |               
G|---------------------------------------------| |
D|-----------------------------------/7--5-3---| |
A|-3h5-----3h5---------3h5-----3h5-----------5-| |
D|-----0-0-----0-0-3-5-----0-0-----0-----------| |
                                                _|
G|-----------|
D|-----------|
A|-5--5-5-55-|
D|-----------|

verse:
2:06
G|------------------------|
D|------------------------|x8
A|-5b--5b-5b-55b--5b-5b-5-|
D|------------------------|
                                                
chorus:                                         _
2:36                                             |
G|----------------------------------------|      |              
D|----------------------------------------|      |               
A|-3h5-----3h5---------3h5-----3h5-----5--|      |               
D|-----0-0-----0-0-3-5-----0-0-----0-0--2-|      |x2                
                                                 |               
G|---------------------------------------------| |
D|-----------------------------------/7--5-3---| |
A|-3h5-----3h5---------3h5-----3h5-----------5-| |
D|-----0-0-----0-0-3-5-----0-0-----0-----------| |
                                                _|
G|-----------|
D|-----------|
A|-5--5-5-55-|
D|-----------|
  
break: wait one measure first
3:12
G|--------------------------|
D|--------------------------|x3
A|-5555-------5555----------|
D|-----0-00-------0-00--3-5-|

G|------------------|    |-----------------|  
D|------------------|x19 |-----------------|  
A|-5555-------------|    |-5555------------|
D|-----000000003355-|    |-----000000003-5-|

G|---------------|   |--------------|
D|---------------|x7 |--------------|
A|-5555----------|   |-5555---------|
D|-----0-00--3-5-|   |-----0-00--35-|

                                               
chorus:                                         _ 
4:50                                             |
G|----------------------------------------|      |              
D|----------------------------------------|      |               
A|-3h5-----3h5---------3h5-----3h5-----5--|      |               
D|-----0-0-----0-0-3-5-----0-0-----0-0--2-|      |x2                
                                                 |               
G|---------------------------------------------| |
D|-----------------------------------/7--5-3---| |
A|-3h5-----3h5---------3h5-----3h5-----------5-| |
D|-----0-0-----0-0-3-5-----0-0-----0-----------| |
                                                _|
G|-----------|
D|-----------|
A|-5--5-5-55-|
D|-----------|

outro:
5:18
G|----------|
D|----------|
A|-5----5-5-|
D|----------|

| /  slide up
| \  slide down
| h  hammer-on
| p  pull-off
| ~  vibrato
| +  harmonic
| x  Mute note
===============================================================================

            
            
Suggest correction
Creating personal tab
Creating personal tab
You can edit any tab online and save it as your Personal.

You can edit, replace or remove any tab part or add personal notes – all changes will be seen only by you.

Personal tabs can be accessed anytime from any device, even offline.
Learn more »
comments
print report bad tab
3 comments total.
0 reply
KSE69 61 Mar 04, 2009 11:28 AM

awesome but only thing i noticed wrong was on the first part of the chorus(this thing)
G|----------------------------------------| |
D|----------------------------------------| |
A|-3h5-----3h5---------3h5-----3h5-----5--| |
D|-----0-0-----0-0-3-5-----0-0-----0-0--3-

instead of the 3 at the end it should be 2

0 reply
iplaybass5 1,099 Mar 04, 2009 12:59 PM

sorry but im pretty sure about the three and it wudn't make sense to put a 2 there because rage songs usually don't stretch out the notes like that

0 reply
iplaybass5 1,099 Mar 04, 2009 01:29 PM

ok my bad i hear it now so i'll change that part

guest
You may want to rate the tab now too:
select rating
Wanna post a correction for this tab? Suggest correction