Oops, an error
Loading. Please wait.

Township Rebellion tab

version 4
version 4

Whole song

Interactive

1,476 views 6 this week
2 commentsread comments
1 2 3 4 5
1 last vote to show rating
add to favorites
×
Save as Personal and add changes to this tab that will be seen only by you. Learn more ›
×
You can save this tab as Personal to edit and correct it or add notes. All changes will be seen only by you. Learn more »
launch autoscroll
font size
0
reset
how to read this tab
guitar tuner
edit
Autoscroll
slow
fast
+/-
esc
set tempo
stop
Author
                 Township Rebellion- Rage Against The Machine


Tabbed by: ethanhausler
Email: ethanhausler@yahoo.com

Tuning: Drop D




Intro        
e|--------------22-22-22-22----------------------------------------------|
B|---3-3--3-3-3----------------------------------------------------------|
G|---2-2--2-2-2----------------------------------------------------------|
d|---0-0--0-0-0----------------------------------------------------------|
A|---0-0--0-0-0----------------------------------------------------------|
D|---0-0--0-0-0----------------------------------------------------------|

For verse 1 repeat that note the 22st fret sixteen times.

For Second verse

the varation is 

e|-----21------21--|
B|-----------------|
G|-----------------|
D|--9-------9------|
A|--10------10-----|
E|-----------------|



Chorus
e|-------------------------------------------|
B|-------------------------------------------|
G|-------------------------------------------|
d|-------------------------------------------|
A|-3h5----3h5-----3-5--3h5-----3h5-----5-----|
D|-----0-0----0-0-3-5------0-0-----0-0---2~--|

e|----------------------------------------------|
B|----------------------------------------------|
G|----------------------------------------------|
d|-----------------------------------5b(7)-5-3--|
A|-3h5-----3h5-----3-5--3h5-----3h5------------5|
D|-----0-0-----0-0-3-5------0-0-----0-----------|

Interlude
e|--------------------| e|-------------------------------------|
B|--------------------| B|-------------------------------------|
G|--------------------| G|-------------------------------------|x3
D|--------------------| D|-------------------------------------|
A|-5555------5555-----| A|-5555------5555------3-5-------------|
D|------0-00------0-00| D|------0-00------0-00-3-5-------------|

Interlude part two (palm mute all)
e|---------------------------------------------|
B|---------------------------------------------|
G|---------------------------------------------|   Then 1 Time Without
D|---------------------------------------------|X19 Palm Muting.   
A|-5555---------------5555---------------------|
D|------00000000-3355------00000000-3355-------|

Interlude part three     
e|-----------------|     e|-----------------|
B|-----------------|     B|-----------------|
d|-----------------| X8  d|-----------------|
G|-----------------|     G|-----------------| x1
A|-5555-------3-5--|     A|-5555------5-----|
D|------0-00--3-5--|     D|------0-00---2~--|


Outro
e|------------------------------------------------------------------------|
B|------------------------------------------------------------------------|
G|------------------------------------------------------------------------|
D|------------------------------------------------------------------------|
A|--0------0-0------------------------------------------------------------|
D|--0------0-0---12\------------------------------------------------------|


************************************

| /   slide up
| \   slide down
| h   hammer-on
| p   pull-off
| ~   vibrato
| +   harmonic
| x   Mute note
| b   Bend
| pb  Pre-bend
| br  Bend release
| pbr Pre-bend release
| brb Bend release bend

************************************

            
            
Suggest correction
Creating personal tab
Creating personal tab
You can edit any tab online and save it as your Personal.

You can edit, replace or remove any tab part or add personal notes – all changes will be seen only by you.

Personal tabs can be accessed anytime from any device, even offline.
Learn more »
Give kudos to tab author, rate the tab!
1 2 3 4 5
comments
print report bad tab
2 comments total.
0 reply
Vezdehod 180 May 04, 2010 10:59 AM

Good try man, but sub-par unfortunately.

0 reply
Vezdehod 180 Jun 22, 2010 06:57 AM

Not bad. the only problems I see are the following:

- Intro is:
e|-----|
B|--3--|
G|--2--|
D|--0--|
A|--0--|
E|--0--|

- The whole 'behind the nut thing' is true, but only on Telecasters. that's only because of how the Telecasters are built.

- The second part of the first verse... you're missing that whole part. It's like this:

e|-----21------21--|
B|-----------------|
G|-----------------|
D|--9-------9------|
A|--10------10-----|
E|-----------------|
and so on.

- No solo.

- Not a big deal, but you're missing some notes that are at the end of the interlude part.

- Also, you didn't tab out that extra 'solo' at the end. It's not a big deal because none of the other tabs have this, but stil... It alternates on the 5th fret of the D string, and on the 3rd of I think the G string.

guest
You may want to rate the tab now too:
select rating
Wanna post a correction for this tab? Suggest correction