Oops, an error
Loading. Please wait.

Wake Up bass

version 3
version 3

Whole song

1,816 views 1 this week
3 commentsread comments
1 2 3 4 5
1 last vote to show rating
add to favorites
×
Save as Personal and add changes to this tab that will be seen only by you. Learn more ›
×
You can save this tab as Personal to edit and correct it or add notes. All changes will be seen only by you. Learn more »
launch autoscroll
font size
0
reset
guitar tuner
backing track
0:00
0:00
edit
Autoscroll
slow
fast
+/-
esc
set tempo
stop
Author
Difficulty
I don't like to tune down, so here's the 5 -string version:
(It's not perfect - I kind of summed it up so it's easier to read, I don't think
I missed anything though)
Intro
G|----------------|----------------|
D|----------------|----------------|
A|5-5-5-5-R---5-5-|5-5-5-r-5-5-5-5-|
E|----------------|----------------|
B|----------------|----------------|

Intro 2/CHORUS/SOLO: (0:26)
G|----------------|----------------|
D|----------------|----------------|
A|--------3-----2-|3-----0---------|
E|----------------|----1---1---0---|
B|3---3-3-----3---|--3-------3-----|

Verse 1: (1:02)
G|----------------|----------------|
D|--------3-------|5---------------|
A|3-5-R-----5-R---|--3-r-3-*-*-4---|
E|----------------|----------------|
B|----------------|----------------|

ADDITIONAL Solo RIFF: (2:55)
|-----------------|
|-----------------|
|5h7-r-7h8-r-8h10-| it's thrown in there sometimes 
|-----------------|
|-----------------|

Bridge pt.1: (3:17)
|----------------|----------------|----------------|----------------|
|----------------|----------------|----------------|----------------|
|----------------|----------------|----------------|----------------|
|--*-*-*-*-*-*-*--|*-3-3-1-3---1-3-|1-*-*-*-*-*-*-*--|*-3-3-1-3---1-3--|
|3---------------|----------3-----|----------------|----------3-----|

Bridge pt.2 (bridge pt.3): (x4)(3:30)
|----------------|
|----------------|
|----------------|
|--3-1-1-3---1-3-|
|3---------3-----|

            
            
Suggest correction
Creating personal tab
Creating personal tab
You can edit any tab online and save it as your Personal.

You can edit, replace or remove any tab part or add personal notes – all changes will be seen only by you.

Personal tabs can be accessed anytime from any device, even offline.
Learn more »
Give kudos to tab author, rate the tab!
1 2 3 4 5
comments
print report bad tab
3 comments total.
0 reply
iloveyouu 41 Apr 04, 2008 02:58 PM

so bad dude.

0 reply
Sp00nman94 176 Oct 24, 2008 07:32 PM

5 string? seriously?

+1 reply
maguire 75 Oct 28, 2008 06:06 PM

If you don't have a 5-string than just go ahead and ignore this

guest
You may want to rate the tab now too:
select rating
Wanna post a correction for this tab? Suggest correction