Oops, an error
Loading. Please wait.

Wake Up bass

version 4
version 4

Whole song

8,868 views 12 this week
1 commentread comment
1 2 3 4 5
x 5
add to favorites
×
Save as Personal and add changes to this tab that will be seen only by you. Learn more ›
×
You can save this tab as Personal to edit and correct it or add notes. All changes will be seen only by you. Learn more »
launch autoscroll
font size
0
reset
guitar tuner
backing track
0:00
0:00
edit
Autoscroll
slow
fast
+/-
esc
set tempo
stop
-------------------------------------------------------------------------------
		WAKE UP (MATRIX THEME) - Rage Against The Machine
-------------------------------------------------------------------------------

Tabbed By : Rachel Elward- (iloveyouu)
e-mail: garden.of.magick@hotmail.com

Mail me if you think anythings wrong with it or anything, this is my first tab and my 
of it. I didn't really like the other tabs, the part after the solo was usually wrong, and 
really couldn't be bothered to correct every single one to the way i play it.
I know it's long, but it's the best way to show it, and understand it.
ENJOY :D

Tuning: DADG (Drop D Tuning)


Intro- (00.02)

G|---------------------------------------------------------------------------|
D|---------------------------------------------------------------------------|
A|-55555----55555----55555555----55555----55555555----55555----55555555------|
D|---------------------------------------------------------------------------|

G|---------------------------------------------------------------------------|
D|---------------------------------------------------------------------------|
A|-55555----55555555----55555----55555555----55555----55555555----55555------|
D|---------------------------------------------------------------------------|

G|---------------------------------------------------------------------------|
D|---------------------------------------------------------------------------|
A|-55555555----555555----555-------------------------------------------------|
D|---------------------------------------------------------------------------|

Main Riff- (00.26) ( x7 )

G|---------------------------------------------------------------------------|
D|---------------------------------------------------------------------------|
A|-------3----2-h3-----------------------------------------------------------|
D|-0--00----0--------0--3-h5--0--3-h2----------------------------------------|

and then... (00.48)

G|---------------------------------------------------------------------------|
D|---------------------------------------------------------------------------|
A|-------3----5-h7--7-h8--8--10----------------------------------------------|
D|-0--00----0----------------------------------------------------------------|

Main Riff- (00.50) ( x4 )


Verse- (01.02) ( x6 )

G|---------------------------------------------------------------------------|
D|--------3-------5----------------------------------------------------------|
A|--3--5------5-------3--3-4-------------------------------------------------|
D|---------------------------------------------------------------------------|

and then...(01.19)

G|---------------------------------------------------------------------------|
D|---------3------5----------------------------------------------------------|
A|--3--5------5-------3--3-4----3--5----(rest)-------------------------------|
D|---------------------------------------------------------------------------|

Verse- (01.25) ( x3 )


and then...(01.34)

G|---------------------------------------------------------------------------|
D|---------3--------5---3---5--66--5--3--5--3--------------------------------|
A|--3---5------5------------------------------5------------------------------|
D|---------------------------------------------------------------------------|

Verse- (01.36) ( x2 )


and then...(01.42)

G|---------------------------------------------------------------------------|
D|---------3-----5-----------------------------------------------------------|
A|--3---5-----5-----3---3--4---3-5-------------------------------------------|
D|---------------------------------------------------------------------------|

Main Riff- (01.47) ( x3 )

and then...

G|---------------------------------------------------------------------------|
D|---------------------------------------------------------------------------|
A|-------3----5-h7--7-h8--8--10----------------------------------------------|
D|-0--00----0----------------------------------------------------------------|


Main Riff- (01.59) ( x4 )

Verse- (02.10) ( x3 )


and then...(02.19)

G|---------------------------------------------------------------------------|
D|----------3-3---5---5-5---6---3-3---5--------------------------------------|
A|--3---5---------------------------------3----------------------------------|
D|---------------------------------------------------------------------------|


Verse- (02.21) ( x2 )

and then...(02.27)

G|---------------------------------------------------------------------------|
D|---------3------5----------------------------------------------------------|
A|--3--5------5-------3--3-4----3--5----(rest)-------------------------------|
D|---------------------------------------------------------------------------|

Verse- (02.32) ( x2 )

and then...(02.38)

G|---------------------------------------------------------------------------|
D|---------3--------5---3---5--66--5--3--5--3--------------------------------|
A|--3---5------5------------------------------5------------------------------|
D|---------------------------------------------------------------------------|

Verse- (02.44) ( x2 )

and then...(02.49)

G|---------------------------------------------------------------------------|
D|---------3------5----------------------------------------------------------|
A|--3--5------5-------3--3-4----3--5----(rest)-------------------------------|
D|---------------------------------------------------------------------------|

Main Riff- (02.55) ( x3 )

and then...

G|---------------------------------------------------------------------------|
D|---------------------------------------------------------------------------|
A|-------3----5-h7--7-h8--8--10----------------------------------------------|
D|-0--00----0----------------------------------------------------------------|

While Guitar Solo Plays, the bass plays:

Main Riff- (03.06) ( x3 )

and then after solo- (03.16), bass plays:

G|---------------------------------------------------------------------------|
D|---------------------------------------------------------------------------|
A|---------------------------------------------------------------------------|
D|----6-5-3-5-0-3-5-0------6-5-3-5-0-3-5-3------6-5-3-5-0-3-5-0--------------|


(03.22)

G|---------------------------------------------------------------------------|
D|---------------------------------------------------------------------------|
A|---------------------------------------------------------------------------|
D|----6-5-3-5-0-3-5--(play 4 times)------------------------------------------|


(03.30)

G|---------------------------------------------------------------------------|
D|---------------------------------------------------------------------------|
A|---------------------------------------------------------------------------|
D|----0-6-5-3-5-0-3-5--(play 8 times)----------------------------------------|


Intro again- (03.41)

G|---------------------------------------------------------------------------|
D|---------------------------------------------------------------------------|
A|-55555----55555----55555555----55555----55555555----55555----55555555------|
D|---------------------------------------------------------------------------|

G|---------------------------------------------------------------------------|
D|---------------------------------------------------------------------------|
A|-55555----55555555----55555----55555555----55555----55555555----55555------|
D|---------------------------------------------------------------------------|

G|---------------------------------------------------------------------------|
D|---------------------------------------------------------------------------|
A|-55555555----555555----555-------------------------------------------------|
D|---------------------------------------------------------------------------|

(play twice)


Main Riff- (04.32) ( x16)

and then... (05.16)

G|---------------------------------------------------------------------------|
D|---------------------------------------------------------------------------|
A|-------3----5-h7--7-h8--8--10----------------------------------------------|
D|-0--00----0----------------------------------------------------------------|


Main Riff- (05.18) ( x7 )

and then...(05.39)

G|---------------------------------------------------------------------------|
D|---------------------------------------------------------------------------|
A|-------3----5-h7--7-h8--8--10----------------------------------------------|
D|-0--00----0----------------------------------------------------------------|


Main Riff- (05.41) ( x3 )

Hold last note.


Thanks (;

| /  slide up
| \  slide down
| h  hammer-on
| p  pull-off
| ~  vibrato
| +  harmonic
| x  Mute note
===============================================================================

            
            
Suggest correction
Creating personal tab
Creating personal tab
You can edit any tab online and save it as your Personal.

You can edit, replace or remove any tab part or add personal notes – all changes will be seen only by you.

Personal tabs can be accessed anytime from any device, even offline.
Learn more »
comments
print report bad tab
1 comment total.
+2 reply
MasterFailure 681 Aug 08, 2014 11:12 PM

Perfect, except:

G|-----------------------------------------------------------|
D|-----------------------------------------------------------|
A|-------3----5-h7--7-h8--8--10------------------------------|
D|-0--00----0------------------------------------------------|

should be:

G|--------------------------------|
D|--------------------------------|
A|-------3----5h7--7h8--8h10------|
D|-0--00-----0----0----0----------|

And personnally, this riff:

G|--------------------------------------------------------|
D|---------3--------5---3---5--66--5--3--5--3-------------|
A|--3---5------5------------------------------5-----------|
D|--------------------------------------------------------|

I prefer playing it like this:

G|------------------------------------|
D|--------3-----5-3-5--5h6--5-3-5-3---|
A|--3--5-----5----------------------5-|
D|------------------------------------|

but it's a detail. ^^

guest
You may want to rate the tab now too:
select rating
Wanna post a correction for this tab? Suggest correction