Oops, an error
Loading. Please wait.
We have an official Long Live Rock N Roll tab made by UG professional guitarists. Check out the tab »
×
by Rainbow
10,506 views 1 this week
1 commentread comment
1 2 3 4 5
1 last vote to show rating
add to favorites
×
Save as Personal and add changes to this tab that will be seen only by you. Learn more ›
×
You can save this tab as Personal to edit and correct it or add notes. All changes will be seen only by you. Learn more »
launch autoscroll
font size
0
reset
guitar tuner
backing track
0:00
0:00
edit
Autoscroll
slow
fast
+/-
esc
set tempo
stop
Difficulty
Long Live Rock n Roll             tabbed by P. Weber

this is 100 % correct

                           |. |
   --33-- is played like --3--3-   but you will hear that

    p
   5>3  is a pulloff


Intro/Chorus                           first ending

G|------|-----------------------------|------------------------------p----||
D|------|o----------------------------|----------------------------5>3---o||
A|------|o-------------------------33-|-33-----------------------------5-o||
E|1-2-3—|--33--33--33--33--11--11-----|-----33--33--33--33--1--1-3--------||

                                        second ending
                                        |---------------------------------||
                                        |5-3------------------------------||
                                        |----5-3--------------------------||
                                        |--------6-3-1-2-3----------------||

[Verse]                                                   first ending
G|--------------p-----------------p-----------------p----|----p--3--------||
D|-------------5>3---------------5>3---------------5>3---|---5>3---5>3-- o||
A|-----------------5-----------------5-----------------5-|-------------5 o||
E|--33--33--33--------33--33--33--------33--33--33-------|33--------------||
                                                          second ending 
                                    ---------------------|-----------||
                                    ---------------------|-----------||
                                    ---------------------|-----------||
                                    ---------------------|33--33--3--||

[Pre Chorus]
G|----------------------------------------------------p--------------||
D|------------------------11--11---------------------5>3-------------||
A|-1-0--------0--3-1-0-----------------------------------5-----------||
E|-----3-1--3----------3---------11--11--33--33--33------------------||

G|-------------------------------------------------------------------||
D|-------------------------------------------------------------------||
A|-1-0--------0--3-1-0-----------------------------------------------||
E|-----3-1--3----------3--111111111111111111--1-2-3------------------||

[Chorus]

[Verse]

[Pre-Chorus]

[Chorus]

[Solo]
G|-----------------|    --------------------------------------------------||
D|o---------------o|    -5-4-3------------5--5--5--5--5--5--5-------------||
A|o---------------o| x3 -------7-6-5-4-3----------------------------------||
E|-33--33--33--33--|    ------------------3--3--3--3--3--3--3-------------||

[Verse 2]
G|---------------p------|    ------------||
D|o-------------5>3----o|    ------------||
A|o-----------------5--o| x7 ------------||
E|--33--33--33----------|    -33--33--3--||

[Pre-Chorus]

[Chorus]

[Verse]

[Pre-Chorus]

[Chorus] ...

            
            
Suggest correction
Creating personal tab
Creating personal tab
You can edit any tab online and save it as your Personal.

You can edit, replace or remove any tab part or add personal notes – all changes will be seen only by you.

Personal tabs can be accessed anytime from any device, even offline.
Learn more »
Give kudos to tab author, rate the tab!
1 2 3 4 5
comments
print report bad tab
1 comment total.
0 reply
xxxxChrisTxxxx [tm] 10,247 Jun 12, 2016 04:26 AM

There's more to it than this.

guest
Wanna post a correction for this tab? Suggest correction