Oops, an error
Loading. Please wait.

Fake Idols tab

344 views 1 this week
1 commentread comment
1 2 3 4 5
2 more votes to show rating
add to favorites
×
Save as Personal and add changes to this tab that will be seen only by you. Learn more ›
×
You can save this tab as Personal to edit and correct it or add notes. All changes will be seen only by you. Learn more »
launch autoscroll
font size
0
reset
how to read this tab
guitar tuner
edit
Autoscroll
slow
fast
+/-
esc
set tempo
stop
Tabbed by: Joshua Garcia (joshuag523@aol.com)

Tabs for the song: Fake Idols by Raintime
Please rate and let me know if you have any corrections. Thank you.


Tuning: Drop B (B F# B E G# C#)


Intro
Guitar 2:
C#||-----------3-----------------3----------------3--------|
G#||-------3-------3---------3-------3--------3-------3----|
E ||-----2---2---2----2----2---2---2---2----2---2---2---2--|
B ||-(0)---------------------------------------------------|
F#||---------------------3----------------1----------------|
B ||-------------------------------------------------------|


C#||---------------------|
G#||------3-----3--------|
E ||----2-----2----------| x4
B ||---------------------|
F#||--0------------------|
B ||--------5-----3-2-0--|


Guitar 1:
C#||---------------------------------------------------------|
G#||-6---6-8-6-----6---6-8-6-----6---6-8-6-----8-6-5-6-5-----|
E ||---7-------7-----7-------7-----7-------7-------------7---|
B ||---------------------------------------------------------|
F#||---------------------------------------------------------|
B ||---------------------------------------------------------|


C#||--------------------------------------------------8--------------|
G#||--8/10---8--------8/10---8--------8/10---8----------8-11-8-10-8--|
E ||------------10--------------10--------------10-------------------| x2
B ||-----------------------------------------------------------------|
F#||-----------------------------------------------------------------|
B ||-----------------------------------------------------------------|



Bridge
Guitar 1:
C#||------------------------------------------------------------------------------------------|
G#||-15---15---15---15---15---15---15---15---15-----------------------------------------------|
E ||----7----7----7----7----7----7----7----7----7-14-7-14-7-14-7-14-7-14-7-14-7-14-7-14-7-14--|
B ||------------------------------------------------------------------------------------------|
F#||------------------------------------------------------------------------------------------|
B ||------------------------------------------------------------------------------------------|
     T  T T  T T  T T  T T  T T  T T  T T  T T  T T  T T  T T  T T  T T  T T  T T  T T  T T


C#||------------------------------------------------------------------------------------|
G#||------------------------------------------------------------------------------------|
E ||-7-15-7-15-7-15-7-15-7-15-7-15-7-15-7-15-7-15-7-14-7-14-7-14-7-14-7-12-7-12-7-10-7--| x2
B ||------------------------------------------------------------------------------------|
F#||------------------------------------------------------------------------------------|
B ||------------------------------------------------------------------------------------|
     T T  T T  T T  T T  T T  T T  T T  T T  T T  T T  T T  T T  T T  T T  T T  T T T


Guitar 2:
C#||--------------------------------------------------------|
G#||--------------------------------------------------------|
E ||---------------3-3-3---5-5-5-------------3-3-3---5-5-5--| x2
B ||-3-2-0~--------3-3-3---5-5-5---0~--------3-3-3---5-5-5--|
F#||-3-2-0~--------1-1-1---3-3-3---0~--------1-1-1---3-3-3--|
B ||-3-2-0~------------------------0~-----------------------|
     . .



Pre-Verse
Guitar 1:
C#||-----------------------------------------------------------------------------|
G#||-----------------------------------------------------------------------------|
E ||-7-7-7-7-7-7-7-7-9-9-9-9-9-9-9-9-----9-9-9-9-9-9-9-9-12-12-12-12-12-12-------| x2
B ||-x-x-x-x-x-x-x-x-x-x-x-x-x-x-x-x-----x-x-x-x-x-x-x-x-x--x--x--x--x--x--------|
F#||-5-5-5-5-5-5-5-5-7-7-7-7-7-7-7-7-7-7-7-7-7-7-7-7-7-7-10-10-10-10-10-10-8-7---|
B ||-----------------------------------------------------------------------------|
                                     . .                                   . .

Guitar 2:
C#||-----------------------------------------------------------------------|
G#||-----------------------------------------------------------------------|
E ||-3-3-3-3-3-3-3-3-2-2-2-2-2-2-2-2-----2-2-2-2-2-2-2-2-------------------| x2
B ||-1-1-1-1-1-1-1-1-2-2-2-2-2-2-2-2-2-2-2-2-2-2-2-2-2-2-5-5-5-5-5-5-3-2---|
F#||-1-1-1-1-1-1-1-1-0-0-0-0-0-0-0-0-0-0-0-0-0-0-0-0-0-0-5-5-5-5-5-5-3-2---|
B ||-----------------------------------------------------5-5-5-5-5-5-3-2---|
                                     . .                             . .



Verse
Guitar 1/2:
C#||-------------------------------------|
G#||-------------------------------------|
E ||-------------------------------------|
B ||---0~----------3-2-0~----------3-2---|
F#||---0~----------3-2-0~----------3-2---|
B ||---0~----------3-2-0~----------3-2---|
                   . .             . .


Pre-Chorus
Guitar 1:
C#||-----------------------------------------------------------------------------|
G#||-----------------------------------------------------------------------------|
E ||-7-7-7-7-7-7-7-7-9-9-9-9-9-9-9-9-----9-9-9-9-9-9-9-9-12-12-12-12-12-12-------|
B ||-x-x-x-x-x-x-x-x-x-x-x-x-x-x-x-x-----x-x-x-x-x-x-x-x-x--x--x--x--x--x--------|
F#||-5-5-5-5-5-5-5-5-7-7-7-7-7-7-7-7-7-7-7-7-7-7-7-7-7-7-10-10-10-10-10-10-8-7---|
B ||-----------------------------------------------------------------------------|
                                     . .                                   . .

C#||------------------------------------------------------------------------------|
G#||------------------------------------------------------------------------------|
E ||-7-7-7-7-7-7-7-7-9-9-9-9-9-9-9-9-----9-9-9-9-9-9-9-9-12-12-12-12-12-12-12-12--|
B ||-x-x-x-x-x-x-x-x-x-x-x-x-x-x-x-x-----x-x-x-x-x-x-x-x-x--x--x--x--x--x--x--x---|
F#||-5-5-5-5-5-5-5-5-7-7-7-7-7-7-7-7-7-7-7-7-7-7-7-7-7-7-10-10-10-10-10-10-10-10--|
B ||------------------------------------------------------------------------------|
                                     . .

Guitar 2:
C#||-----------------------------------------------------------------------|
G#||-----------------------------------------------------------------------|
E ||-3-3-3-3-3-3-3-3-2-2-2-2-2-2-2-2-----2-2-2-2-2-2-2-2-------------------|
B ||-1-1-1-1-1-1-1-1-2-2-2-2-2-2-2-2-2-2-2-2-2-2-2-2-2-2-5-5-5-5-5-5-3-2---|
F#||-1-1-1-1-1-1-1-1-0-0-0-0-0-0-0-0-0-0-0-0-0-0-0-0-0-0-5-5-5-5-5-5-3-2---|
B ||-----------------------------------------------------5-5-5-5-5-5-3-2---|
                                     . .                             . .

C#||-----------------------------------------------------------------------|
G#||-----------------------------------------------------------------------|
E ||-3-3-3-3-3-3-3-3-2-2-2-2-2-2-2-2-----2-2-2-2-2-2-2-2-------------------|
B ||-1-1-1-1-1-1-1-1-2-2-2-2-2-2-2-2-2-2-2-2-2-2-2-2-2-2-5-5-5-5-5-5-5-5---|
F#||-1-1-1-1-1-1-1-1-0-0-0-0-0-0-0-0-0-0-0-0-0-0-0-0-0-0-5-5-5-5-5-5-5-5---|
B ||-----------------------------------------------------5-5-5-5-5-5-5-5---|
                                     . .


Chorus
Guitar 1/2:
C#||------------------------------------------------------------------------|
G#||------------------------------------------------------------------------|
E ||------------------------------------------------------------------------| x2
B ||--0-0-0-0-0-0-0-0-0-0-0-0-0-0-0-0-5-5-5-5-5-5-5-5----8-8-8----10-10-10--|
F#||--0-0-0-0-0-0-0-0-0-0-0-0-0-0-0-0-5-5-5-5-5-5-5-5----8-8-8----10-10-10--|
B ||--0-0-0-0-0-0-0-0-0-0-0-0-0-0-0-0-5-5-5-5-5-5-5-5----8-8-8----10-10-10--|



Interlude
Guitar 1:
C#||----------3-----------------3----------------3--------|
G#||------3-------3---------3-------3--------3-------3----|
E ||----2---2---2----2----2---2---2---2----2---2---2---2--|
B ||--0---------------------------------------------------|
F#||--------------------3----------------1----------------|
B ||------------------------------------------------------|


C#||---------------|
G#||------3-----3--|
E ||----2-----2----| x4
B ||---------------|
F#||--0------------|
B ||--------5------|


Guitar 2:
C#||-----------------------------------------------|
G#||-----------------------------------------------|
E ||-----------------------------------------------|
B ||---0~----------5~----------8-8-8----10-10-10---|
F#||---0~----------5~----------8-8-8----10-10-10---|
B ||---0~----------5~----------8-8-8----10-10-10---|



Verse
Guitar 1:
C#||------------------------------------------------------------------------------------------|
G#||-15---15---15---15---15---15---15---15---15-----------------------------------------------|
E ||----7----7----7----7----7----7----7----7----7-14-7-14-7-14-7-14-7-14-7-14-7-14-7-14-7-14--|
B ||------------------------------------------------------------------------------------------|
F#||------------------------------------------------------------------------------------------|
B ||------------------------------------------------------------------------------------------|
     T  T T  T T  T T  T T  T T  T T  T T  T T  T T  T T  T T  T T  T T  T T  T T  T T  T T


C#||------------------------------------------------------------------------------------|
G#||------------------------------------------------------------------------------------|
E ||-7-15-7-15-7-15-7-15-7-15-7-15-7-15-7-15-7-15-7-14-7-14-7-14-7-14-7-12-7-12-7-10-7--| x2
B ||------------------------------------------------------------------------------------|
F#||------------------------------------------------------------------------------------|
B ||------------------------------------------------------------------------------------|
     T T  T T  T T  T T  T T  T T  T T  T T  T T  T T  T T  T T  T T  T T  T T  T T T


Guitar 2:
C#||----------------------------------------------------------------------------|
G#||----------------------------------------------------------------------------|
E ||----------------------------------------------------------------------------| x2
B ||--0-0-0-0-0-0-0-0-0-0-0-0-0-0-0-0-0-0-0-0-0-0-0-0--0---8-8-8---0--10-10-10--|
F#||--0-0-0-0-0-0-0-0-0-0-0-0-0-0-0-0-0-0-0-0-0-0-0-0--0---8-8-8---0--10-10-10--|
B ||--0-0-0-0-0-0-0-0-0-0-0-0-0-0-0-0-0-0-0-0-0-0-0-0--0---8-8-8---0--10-10-10--|
      . . . . . . . . . . . . . . . . . . . . . . . .  .           .



Pre-Chorus
Guitar 1:
C#||-----------------------------------------------------------------------------|
G#||-----------------------------------------------------------------------------|
E ||-7-7-7-7-7-7-7-7-9-9-9-9-9-9-9-9-----9-9-9-9-9-9-9-9-12-12-12-12-12-12-------| x2
B ||-x-x-x-x-x-x-x-x-x-x-x-x-x-x-x-x-----x-x-x-x-x-x-x-x-x--x--x--x--x--x--------|
F#||-5-5-5-5-5-5-5-5-7-7-7-7-7-7-7-7-7-7-7-7-7-7-7-7-7-7-10-10-10-10-10-10-8-7---|
B ||-----------------------------------------------------------------------------|
                                     . .                                   . .

C#||-----------------------------------------------------------------------|
G#||-----------------------------------------------------------------------|
E ||-7-7-7-7-7-7-7-7-9-9-9-9-9-9-9-9-----9-9-9-9-9-9-9-9-12-12-12-12-12-x--| x2
B ||-x-x-x-x-x-x-x-x-x-x-x-x-x-x-x-x-----x-x-x-x-x-x-x-x-x--x--x--x--x--x--|
F#||-5-5-5-5-5-5-5-5-7-7-7-7-7-7-7-7-7-7-7-7-7-7-7-7-7-7-10-10-10-10-10-x--|
B ||-----------------------------------------------------------------------|
                                     . .

Guitar 2:
C#||-----------------------------------------------------------------------|
G#||-----------------------------------------------------------------------|
E ||-3-3-3-3-3-3-3-3-2-2-2-2-2-2-2-2-----2-2-2-2-2-2-2-2-------------------|
B ||-1-1-1-1-1-1-1-1-2-2-2-2-2-2-2-2-2-2-2-2-2-2-2-2-2-2-5-5-5-5-5-5-3-2---|
F#||-1-1-1-1-1-1-1-1-0-0-0-0-0-0-0-0-0-0-0-0-0-0-0-0-0-0-5-5-5-5-5-5-3-2---|
B ||-----------------------------------------------------5-5-5-5-5-5-3-2---|
                                     . .                             . .

C#||------------------------------------------------------------------|
G#||------------------------------------------------------------------|
E ||-3-3-3-3-3-3-3-3-2-2-2-2-2-2-2-2-----2-2-2-2-2-2-2-2--------------|
B ||-1-1-1-1-1-1-1-1-2-2-2-2-2-2-2-2-2-2-2-2-2-2-2-2-2-2-5-5-5-5-5-x--|
F#||-1-1-1-1-1-1-1-1-0-0-0-0-0-0-0-0-0-0-0-0-0-0-0-0-0-0-5-5-5-5-5-x--|
B ||-----------------------------------------------------5-5-5-5-5-x--|
                                     . .


Chorus
Guitar 1/2:
C#||------------------------------------------------------------------------|
G#||------------------------------------------------------------------------|
E ||------------------------------------------------------------------------| x2
B ||--0-0-0-0-0-0-0-0-0-0-0-0-0-0-0-0-5-5-5-5-5-5-5-5----8-8-8----10-10-10--|
F#||--0-0-0-0-0-0-0-0-0-0-0-0-0-0-0-0-5-5-5-5-5-5-5-5----8-8-8----10-10-10--|
B ||--0-0-0-0-0-0-0-0-0-0-0-0-0-0-0-0-5-5-5-5-5-5-5-5----8-8-8----10-10-10--|



Bridge
Guitar 1:
C#||-------------------------------------------|
G#||--6----8----10-----------------------------|
E ||------------------10----9--------10\5--5---|
B ||-------------------------------------------|
F#||-------------------------------------------|
B ||-------------------------------------------|


C#||------------------------/17~--|
G#||--6----8----10----11----------|
E ||------------------------------|
B ||------------------------------|
F#||------------------------------|
B ||------------------------------|


C#||-------------------------------------------|
G#||--6----8----10-----------------------------|
E ||------------------10----9--------10\5--5---|
B ||-------------------------------------------|
F#||-------------------------------------------|
B ||-------------------------------------------|


C#||------------------------/17~----------|
G#||--6----8----10----11------------------|
E ||-------------------------------7---6--|
B ||--------------------------------------|
F#||--------------------------------------|
B ||--------------------------------------|


Guitar 2:
C#||-----------------------------------------------------------|
G#||-----------------------------------------------------------|
E ||-----------------------------------------------------------|
B ||--00000---00000---000----1010101010---1010101010---101010--|
F#||--00000---00000---000----1010101010---1010101010---101010--|
B ||--00000---00000---000----1010101010---1010101010---101010--|


C#||----------------------------------------------|
G#||----------------------------------------------|
E ||----------------------------------------------| x2
B ||--88888---88888---888----00000---00000---000--|
F#||--88888---88888---888----00000---00000---000--|
B ||--88888---88888---888----00000---00000---000--|



Solo
Guitar 1:
C#||----------------------------/8--------------------------------|
G#||---------------------------------11----10h11p10---8-----------|
E ||--7---9--10-----7---9--10-----------------------------10--9---|
B ||--------------------------------------------------------------|
F#||--------------------------------------------------------------|
B ||--------------------------------------------------------------|


C#||-----------------------------/8-------------------------------|
G#||--10------------------------------11----10h11p10---8----------|
E ||-------9--10-----7---9--10----------------------------10--9---|
B ||--------------------------------------------------------------|
F#||--------------------------------------------------------------|
B ||--------------------------------------------------------------|


Guitar 2:
C#||-------------------------------------------------------------------|
G#||-------------------------------------------------------------------|
E ||-------------------------------------------------------------------| x2
B ||--0-0-0-0-0-0-0-0-0-0-0-0-0-0-0-0-8-8-8-8-8-8-8-8-5-5-5-5-5-5-5-5--|
F#||--0-0-0-0-0-0-0-0-0-0-0-0-0-0-0-0-8-8-8-8-8-8-8-8-5-5-5-5-5-5-5-5--|
B ||--0-0-0-0-0-0-0-0-0-0-0-0-0-0-0-0-8-8-8-8-8-8-8-8-5-5-5-5-5-5-5-5--|



Chorus/Outro
Guitar 1/2
C#||----------------------------------------------------|
G#||----------------------------------------------------|
E ||------------------2-2-2-2-2-2-2-2---5-5-5----7-7-7--|
B ||--2-2-2-2-2-2-2-2-2-2-2-2-2-2-2-2---5-5-5----7-7-7--|
F#||--2-2-2-2-2-2-2-2-0-0-0-0-0-0-0-0---3-3-3----5-5-5--|
B ||--2-2-2-2-2-2-2-2-----------------------------------|


C#||--------------------------------------------------------------------|
G#||--------------------------------------------------------------------|
E ||----------------------------------2-2-2-2-2-2-2-2---5-5-5----7-7-7--| x3
B ||--2-2-2-2-2-2-2-2-2-2-2-2-2-2-2-2-2-2-2-2-2-2-2-2---5-5-5----7-7-7--|
F#||--2-2-2-2-2-2-2-2-2-2-2-2-2-2-2-2-0-0-0-0-0-0-0-0---3-3-3----5-5-5--|
B ||--2-2-2-2-2-2-2-2-2-2-2-2-2-2-2-2-----------------------------------|





Tablature Legend
----------------
 h   hammer-on
 p   pull-off
 b   bend
 pb  pre-bend
 r   release bend
 ~   hold / vibrato
 .   palm mute
 /   slide up
 \   slide down
 *   pinch harmonic
 '   natural harmonic
 x   mute note
 T   tap

            
            
Suggest correction
Creating personal tab
Creating personal tab
You can edit any tab online and save it as your Personal.

You can edit, replace or remove any tab part or add personal notes – all changes will be seen only by you.

Personal tabs can be accessed anytime from any device, even offline.
Learn more »
Give kudos to tab author, rate the tab!
1 2 3 4 5
comments
print report bad tab
1 comment total.
0 reply
AlejandroAle 46 Aug 15, 2015 10:21 PM

Could you tab Raintime - Daily Execution-Paradox Defeat ??
I like the riff

guest
You may want to rate the tab now too:
select rating
Wanna post a correction for this tab? Suggest correction