Oops, an error
Loading. Please wait.

Somos Nosotros chords

30 views 1 this week
no commentswrite comment
1 2 3 4 5
3 more votes to show rating
add to favorites
×
Save as Personal and add changes to this tab that will be seen only by you. Learn more ›
×
You can save this tab as Personal to edit and correct it or add notes. All changes will be seen only by you. Learn more »
launch autoscroll
font size
0
reset
transpose
0
reset
simplify chords
display chords
guitar tuner
edit
Autoscroll
slow
fast
+/-
esc
set tempo
stop
Strumming
There is no strumming pattern for this song yet. and get +5 IQ
e*-------------0--------------4------------0-------0-------
B*------------0-0------------0-0---------------------------
G*-----------6---6----------6---6--------4--------2--------
D*----------6--------------6---------------------2---------
A*---4---------------------------------2-------0-----------
E*----------------------5----------------------------------
#
e*-------------0--------------4------------0---------0-----
B*------------0-0------------0-0----------4-4-------0-0----
G*-----------6---6----------6---6--------4---4-----2---2---
D*----------6--------------6-------------------------------
A*-------4-----------------------------2----------0--------
E*----------------------5----------------------------------
[Se Repite a partir de #] 


       I
C#m       A 
Somos musiqueros
         B  
por que asi lo dicta 
    E    F#          E 
el sol somos los heroicos 
       G#7        C#m        
guerrilleros del amor.

Somos los suicidas 
buscadores del amar 
somos los amantes 
trasnochados de la paz.

Somos herederos de la 
duda y el temor 
somos alquimistas de 
A gran revolucion.

Estribillo
**********
Somos mensajeros de 
la lucha y la verdad
Somos peregrinos de 
A amada libertad. 

        II
Somos los adictos 
ciudadanos de papel 
Somos la esperanza 
dibujada en la pared.

Somos los actores 
de la cruda realidad
Somos partidarios de la
humana dignidad.

Somos disidentes 
de la puta corrupcion
Somos compañeros de
las madres del dolor.

            
            
Suggest correction
Creating personal tab
Creating personal tab
You can edit any tab online and save it as your Personal.

You can edit, replace or remove any tab part or add personal notes – all changes will be seen only by you.

Personal tabs can be accessed anytime from any device, even offline.
Learn more »
Give kudos to tab author, rate the tab!
1 2 3 4 5
comments
print report bad tab
guest
Wanna post a correction for this tab? Suggest correction