Oops, an error
Loading. Please wait.
We have an official Feuer Frei tab made by UG professional guitarists. Check out the tab »
×
58,918 views 12 this week
4 commentsread comments
1 2 3 4 5
x 28
add to favorites
×
Save as Personal and add changes to this tab that will be seen only by you. Learn more ›
×
You can save this tab as Personal to edit and correct it or add notes. All changes will be seen only by you. Learn more »
launch autoscroll
font size
0
reset
how to read this tab
guitar tuner
backing track
0:00
0:00
edit
Autoscroll
slow
fast
+/-
esc
set tempo
stop
-------------------------------------------------------------------------------
                             FEUER FREI - Rammstein
-------------------------------------------------------------------------------
Tabbed by: Matt Richards
Email: matt2210@hotmail.com

Tuning: Dropped D

intro:
e|-----|
B|-----|
G|-----|
D|--6--|
A|--6--|
D|--6--| let ring

e|-----------------------|
B|-----------------------|
G|-----------------------|
D|----5h6-5h6-5h6-5h6-8--|
A|----5h6-5h6-5h6-5h6-8--|
D|----5h6-5h6-5h6-5h6-8--| x8

verses:

e|---------|
B|---------|
G|---------|
D|--555-8--|
A|--555-8--|
E|--555-8--| x3 near end of the verse

chorus:
e|-----------------------|
B|-----------------------|
G|-----------------------|
D|----5h6-5h6-5h6-5h6-8--|
A|----5h6-5h6-5h6-5h6-8--|
D|----5h6-5h6-5h6-5h6-8--| x2

e|----------|
B|----------|
G|----------|
D|-12-11-8--|
A|-12-11-8--|
D|-12-11-8--|

e|-----------------------|
B|-----------------------|
G|-----------------------|
D|----5h6-5h6-5h6-5h6-8--|
A|----5h6-5h6-5h6-5h6-8--|
D|----5h6-5h6-5h6-5h6-8--| x3

e|----------|
B|----------|
G|----------|
D|-12-11-8--|
A|-12-11-8--|
D|-12-11-8--|

chorus

ending
e|----------|
B|----------|
G|----------|
D|-12-11-8--|
A|-12-11-8--|
D|-12-11-8--| x3

| /  slide up
| \  slide down
| h  hammer-on
| p  pull-off
| ~  vibrato
| +  harmonic
| x  Mute note
===============================================================================

            
            
Suggest correction
Creating personal tab
Creating personal tab
You can edit any tab online and save it as your Personal.

You can edit, replace or remove any tab part or add personal notes – all changes will be seen only by you.

Personal tabs can be accessed anytime from any device, even offline.
Learn more »
comments
print report bad tab
4 comments total. Showing first comments.
0 reply
StreamLine 30 Feb 08, 2003 07:00 PM

perfect tab

0 reply
ShizNick 120 Oct 21, 2005 09:20 AM

they hold on an A, not A# in the beginning
e|-----|
B|-----|
G|-----|
D|--5--|
A|--5--|
D|--5--|

and this is the chorus part:
e|----------------------------|
B|----------------------------|
G|----------------------------|
D|----5h6-5h6-5h6-5h6-8888-10-|
A|----5h6-5h6-5h6-5h6-8888-10-|
D|----5h6-5h6-5h6-5h6-8888-10-| x8
^ quads

0 reply
basthiian125 10 Jul 04, 2010 02:33 PM

he also is wrong
the correct tab is thre times the 8 space

e|----------------------------|
B|----------------------------|
G|----------------------------|
D|----5h6-5h6-5h6-5h6-888-----|
A|----5h6-5h6-5h6-5h6-888-----|
D|----5h6-5h6-5h6-5h6-888-----|

sorry for my english

guest
Wanna post a correction for this tab? Suggest correction