Oops, an error
Loading. Please wait.
We have an official Ich Tu Dir Weh tab made by UG professional guitarists. Check out the tab »
×

Ich Tu Dir Weh tab

697 views 6 this week
1 commentread comment
1 2 3 4 5
3 more votes to show rating
add to favorites
×
Save as Personal and add changes to this tab that will be seen only by you. Learn more ›
×
You can save this tab as Personal to edit and correct it or add notes. All changes will be seen only by you. Learn more »
launch autoscroll
font size
0
reset
how to read this tab
guitar tuner
backing track
0:00
0:00
edit
Autoscroll
slow
fast
+/-
esc
set tempo
stop
About this tab version
Easier to read than others. Was this info helpful? Yes No
Song: Ich Tu Dir Weh
Artist: Rammstein
Tuning: Drop D

There are differences between the live versions
and the album version (The way they play, not how
many times they play the parts). The only
differences are the verses, and I'll tab both of
those out.


[Intro]

e|------------|
B|------------|
G|------------| x4
D|------------|
A|-0--0--0-0-0|
D|-0--0--0-0-0|

e|-----------------------------------------------------------------|
B|-----------------------------------------------------------------|
G|-----------------------------------------------------------------| x4
D|-0-----0---------0-----0---------0-----0---------5--3--0--6--5--3|
A|-0--0--0--0-0-0--0--0--0--0-0-0--0--0--0--0-0-0--5--3--0--6--5--3|
D|-0--0--0--0-0-0--0--0--0--0-0-0--0--0--0--0-0-0--5--3--0--6--5--3|
      .     . . .     .     . . .     .     . . .


[Verse]

(Album Version Guitar 1)

e|---------------------------------------------------------|
B|---------------------------------------------------------|
G|---------------------------------------------------------| x6
D|---------------------------------------------------------|
A|-5--5--5--5-5-5--5--5--5--5-5-5--5--5--5--5-5-5--15-15-15|
D|-0--0--0--0-0-0--0--0--0--0-0-0--0--0--0--0-0-0--0--0--0-|
      .     . . .     .     . . .     .     . . .     .

e|---------------|
B|---------------|
G|---------------| x16
D|---------------|
A|-5--5--5--5-5-5|
D|-0--0--0--0-0-0|
      .     . . .


[Verse]

(Album Version Guitar 2)

e|---------------|
B|---------------|
G|---------------| x24
D|---------------|
A|-5--5--5--5-5-5|
D|-0--0--0--0-0-0|
      .     . . .

e|----------------------------------------------------------------|
B|----------------------------------------------------------------|
G|----------------------------------------------------------------|
D|----------------------------------------------------------------|
A|-5--5--5--5-5-5--5--5--5--5-5-5--7--7--7--7-7-7--7--7--7--7-7-7-|
D|-0--0--0--0-0-0--0--0--0--0-0-0--0--0--0--0-0-0--0--0--0--0-0-0-|
      .     . . .     .     . . .     .     . . .     .     . . .

e|---------------------------------------------------------------------------|
B|---------------------------------------------------------------------------|
G|---------------------------------------------------------------------------| x2
D|---------------------------------------------------------------------------|
A|-8--8--8--8-8-8--8--8--8--8-8-8--10--10--10--10-10-10--10--10--10--10-10-10|
D|-0--0--0--0-0-0--0--0--0--0-0-0--0---0---0---0--0--0---0---0---0---0--0--0-|
      .     . . .     .     . . .      .       .  .  .       .       .  .  .


[Verse]

(Live Version Guitar 1)

e|---------------------------------------------------------|
B|---------------------------------------------------------|
G|---------------------------------------------------------| x6
D|---------------------------------------------------------|
A|-5--5--5--5-5-5--5--5--5--5-5-5--5--5--5--5-5-5--15-15-15|
D|-0--0--0--0-0-0--0--0--0--0-0-0--0--0--0--0-0-0--0--0--0-|
      .     . . .     .     . . .     .     . . .     .

e|----------------------------------------------------------------|
B|----------------------------------------------------------------|
G|----------------------------------------------------------------|
D|----------------------------------------------------------------|
A|-5--5--5--5-5-5--5--5--5--5-5-5--7--7--7--7-7-7--7--7--7--7-7-7-|
D|-0--0--0--0-0-0--0--0--0--0-0-0--0--0--0--0-0-0--0--0--0--0-0-0-|
      .     . . .     .     . . .     .     . . .     .     . . .

e|---------------------------------------------------------------------------|
B|---------------------------------------------------------------------------|
G|---------------------------------------------------------------------------| x2
D|---------------------------------------------------------------------------|
A|-8--8--8--8-8-8--8--8--8--8-8-8--10--10--10--10-10-10--10--10--10--10-10-10|
D|-0--0--0--0-0-0--0--0--0--0-0-0--0---0---0---0--0--0---0---0---0---0--0--0-|
      .     . . .     .     . . .      .       .  .  .       .       .  .  .


[Verse]

(Live Version Guitar 2)

e|---------------|
B|---------------|
G|-7-----7-------| x24
D|-0-----0-------|
A|-5--5--5--5-5-5|
D|-0--0--0--0-0-0|
      .     . . .

e|----------------------------------------------------------------|
B|----------------------------------------------------------------|
G|-7-----7---------7-----7---------9-----9---------9-----9--------|
D|-0-----0---------0-----0---------0-----0---------0-----0--------|
A|-5--5--5--5-5-5--5--5--5--5-5-5--7--7--7--7-7-7--7--7--7--7-7-7-|
D|-0--0--0--0-0-0--0--0--0--0-0-0--0--0--0--0-0-0--0--0--0--0-0-0-|
      .     . . .     .     . . .     .     . . .     .     . . .

e|----------------------------------------------------------------------------|
B|----------------------------------------------------------------------------|
G|-10----10--------10----10--------12------12------------12------12-----------|
D|-0-----0---------0-----0---------0-------0-------------0-------0------------|
A|-8--8--8--8-8-8--8--8--8--8-8-8--10--10--10--10-10-10--10--10--10--10-10-10-|
D|-0--0--0--0-0-0--0--0--0--0-0-0--0---0---0---0--0--0---0---0---0---0--0--0--|
      .     . . .     .     . . .      .       .  .  .       .       .  .  .

e|------------------------------------------------------------------------------------------|
B|------------------------------------------------------------------------------------------|
G|-14-------14------------14------14------------15------15------------15------15------------|
D|-0--------0-------------0-------0-------------0-------0-------------0-------0-------------|
A|-12--12---12--12-12-12--12--12--12--12-12-12--13--13--13--13-13-13--13--13--13--13-13-13--|
D|-0---0----0---0--0--0---0---0---0---0--0--0---0---0---0---0--0--0---0---0---0---0--0--0---|
       .        .  .  .       .       .  .  .       .       .  .  .       .       .  .  .

e|--------------------------------------------|
B|--------------------------------------------|
G|-17-------17------------17------17----------|
D|-0--------0-------------0-------0-----------|
A|-15--15---15--15-15-15--15--15--15--15-15-15|
D|-0---0----0---0--0--0---0---0---0---0--0--0-|
       .        .  .  .       .       .  .  .


[Chorus]

(Guitar 1)
(Also played during keyboard solo)

e|----------------------------------------------------------------|
B|----------------------------------------------------------------|
G|----------------------------------------------------------------|
D|-0-----0---------0-----0---------3-----3---------3-----3--------|
A|-0--0--0--0-0-0--0--0--0--0-0-0--3--3--3--3-3-3--3--3--3--3-3-3-|
D|-0--0--0--0-0-0--0--0--0--0-0-0--3--3--3--3-3-3--3--3--3--3-3-3-|
      .     . . .     .     . . .     .     . . .     .     . . .

e|----------------------------------------------------------------|
B|----------------------------------------------------------------|
G|----------------------------------------------------------------|
D|-3-----3---------3-----3---------5-----5---------5-----5--------|
A|-3--3--3--3-3-3--3--3--3--3-3-3--5--5--5--5-5-5--5--5--5--5-5-5-|
D|-3--3--3--3-3-3--3--3--3--3-3-3--5--5--5--5-5-5--5--5--5--5-5-5-|
      .     . . .     .     . . .     .     . . .     .     . . .

e|----------------------------------------------------------------|
B|----------------------------------------------------------------|
G|----------------------------------------------------------------|
D|-8-----8---------8-----8---------0-----0---------0-----0--------|
A|-8--8--8--8-8-8--8--8--8--8-8-8--0--0--0--0-0-0--0--0--0--0-0-0-|
D|-8--8--8--8-8-8--8--8--8--8-8-8--0--0--0--0-0-0--0--0--0--0-0-0-|
      .     . . .     .     . . .     .     . . .     .     . . .

e|------------------------------------------------|
B|------------------------------------------------|
G|------------------------------------------------|
D|-7-7-7-7-7-7-7-7-7-7-7-7-7-7-7-7-7-7-7-7-7-7-7-7|
A|-7-7-7-7-7-7-7-7-7-7-7-7-7-7-7-7-7-7-7-7-7-7-7-7|
D|-7-7-7-7-7-7-7-7-7-7-7-7-7-7-7-7-7-7-7-7-7-7-7-7|


[Chorus]

(Guitar 2)
(Also played during keyboard solo)

e|----------------------------------------------------------------|
B|----------------------------------------------------------------|
G|----------------------------------------------------------------|
D|---------------------------------3-----3---------3-----3--------|
A|-5--5--5--5-5-5--5--5--5--5-5-5--3--3--3--3-3-3--3--3--3--3-3-3-|
D|-0--0--0--0-0-0--0--0--0--0-0-0--3--3--3--3-3-3--3--3--3--3-3-3-|
      .     . . .     .     . . .     .     . . .     .     . . .

e|----------------------------------------------------------------|
B|----------------------------------------------------------------|
G|----------------------------------------------------------------|
D|-3-----3---------3-----3---------5-----5---------5-----5--------|
A|-3--3--3--3-3-3--3--3--3--3-3-3--5--5--5--5-5-5--5--5--5--5-5-5-|
D|-3--3--3--3-3-3--3--3--3--3-3-3--5--5--5--5-5-5--5--5--5--5-5-5-|
      .     . . .     .     . . .     .     . . .     .     . . .

e|----------------------------------------------------------------|
B|----------------------------------------------------------------|
G|----------------------------------------------------------------|
D|-8-----8---------8-----8----------------------------------------|
A|-8--8--8--8-8-8--8--8--8--8-8-8--5--5--5--5-5-5--5--5--5--5-5-5-|
D|-8--8--8--8-8-8--8--8--8--8-8-8--0--0--0--0-0-0--0--0--0--0-0-0-|
      .     . . .     .     . . .     .     . . .     .     . . .

e|--------------------------------------------------------|
B|--------------------------------------------------------|
G|--------------------------------------------------------|
D|-7-----7---------7-----7---------7-7-7-7-7-7-7-7-7-7-7-7|
A|-7--7--7--7-7-7--7--7--7--7-7-7--7-7-7-7-7-7-7-7-7-7-7-7|
D|-7--7--7--7-7-7--7--7--7--7-7-7--7-7-7-7-7-7-7-7-7-7-7-7|
      .     . . .     .     . . .

            
            
Suggest correction
Creating personal tab
Creating personal tab
You can edit any tab online and save it as your Personal.

You can edit, replace or remove any tab part or add personal notes – all changes will be seen only by you.

Personal tabs can be accessed anytime from any device, even offline.
Learn more »
Give kudos to tab author, rate the tab!
1 2 3 4 5
comments
print report bad tab
1 comment total.
0 reply
alamiranogustsvo 10 Aug 22, 2017 10:39 PM

great tabs but can you post the ending of the 2017 version of ITDW?

guest
You may want to rate the tab now too:
select rating
Wanna post a correction for this tab? Suggest correction