Oops, an error
Loading. Please wait.
We have an official Links 2 3 4 tab made by UG professional guitarists. Check out the tab »
×
14,222 views 21 this week
4 commentsread comments
1 2 3 4 5
x 7
add to favorites
×
Save as Personal and add changes to this tab that will be seen only by you. Learn more ›
×
You can save this tab as Personal to edit and correct it or add notes. All changes will be seen only by you. Learn more »
launch autoscroll
font size
0
reset
how to read this tab
guitar tuner
backing track
0:00
0:00
edit
Autoscroll
slow
fast
+/-
esc
set tempo
stop
tabbed by: dicky    -    dj_nasty_rick@yahoo.com
band: rammstein
cd: hell, i don't know...i downloaded it
song: links 2 3 4
part: solo (if not right, very close)

standard tuning

i don't know how to explain how to do this, when you pick it(WITH A PICK) you need to
let go of the finger on the fretboard and let it ring, just listen to the song and figure
it out, the solo starts at 2:46 seconds into the song.

the solo is really 3 parts, it goes: pt.1  pt. 2  pt. 1  pt. 3

signs: * = let go BUT DON'T MUTE!!!
       ~ = let ring

Distorted (heavily)

pt.1
E|------------------------------------------------------------------------------------------|
B|--7*0--8*0--10*0--8*0--7*0--5*0--7*0--8*0--7*0--8*0--10*0--8*0--7*0--8*0--5~~-------------|
G|------------------------------------------------------------------------------------------|
D|------------------------------------------------------------------------------------------|
A|------------------------------------------------------------------------------------------|
E|------------------------------------------------------------------------------------------|


pt.2
E|------------------------------------------------------------------------------------------|
B|--7*0--8*0--10*0--8*0--7*0--5*0--7*0--8*0--7*0--8*0--10*0--8*0--7*0--8*0--12~~------------|
G|------------------------------------------------------------------------------------------|
D|------------------------------------------------------------------------------------------|
A|------------------------------------------------------------------------------------------|
E|------------------------------------------------------------------------------------------|


pt.1
E|------------------------------------------------------------------------------------------|
B|--7*0--8*0--10*0--8*0--7*0--5*0--7*0--8*0--7*0--8*0--10*0--8*0--7*0--8*0--5~~-------------|
G|------------------------------------------------------------------------------------------|
D|------------------------------------------------------------------------------------------|
A|------------------------------------------------------------------------------------------|
E|------------------------------------------------------------------------------------------|


PT.3
E|------------------------------------------------------------------------------------------|
B|--7*0--8*0--10*0--8*0--7*0--5*0--7*0--8*0--7*0--8*0--10*0--8*0--7*0--8*0--12~12~~~~-------|
G|------------------------------------------------------------------------------------------|
D|------------------------------------------------------------------------------------------|
A|------------------------------------------------------------------------------------------|
E|------------------------------------------------------------------------------------------|

truly sorry if it looked complicated or anything like that, it does sound great once you get
it.  it is a very easy solo that sounds complicated so play it at the nearest guitar store to
show off.

            
            
Suggest correction
Creating personal tab
Creating personal tab
You can edit any tab online and save it as your Personal.

You can edit, replace or remove any tab part or add personal notes – all changes will be seen only by you.

Personal tabs can be accessed anytime from any device, even offline.
Learn more »
comments
print report bad tab
4 comments total. Showing first comments.
0 reply
Herz_Aus_Gold 30 Dec 16, 2003 07:00 PM

the solo is right, and those finger thingies r called pull offs ;) Rammstein kicks ass!

0 reply
ramses 2 10 May 12, 2004 08:00 PM

este solo esta bien cabron rammstein rules

0 reply
degarmowho 10 Jul 25, 2004 08:00 PM

it's almost perfect, but you leave out one part

this:
pt.1
E|------------------------------------------------------------------------------------------|
B|--7*0--8*0--10*0--8*0--7*0--5*0--7*0--8*0--7*0--8*0--10*0--8*0--7*0--8*0--5~~-------------|
G|------------------------------------------------------------------------------------------|
D|------------------------------------------------------------------------------------------|
A|------------------------------------------------------------------------------------------|
E|------------------------------------------------------------------------------------------|


pt.2
E|------------------------------------------------------------------------------------------|
B|--7*0--8*0--10*0--8*0--7*0--5*0--7*0--8*0--7*0--8*0--10*0--8*0--7*0--8*0--12~~------------|
G|------------------------------------------------------------------------------------------|
D|------------------------------------------------------------------------------------------|
A|------------------------------------------------------------------------------------------|
E|------------------------------------------------------------------------------------------|


should look like this:

pt.1
E|------------------7p0----------------------------7p0-------------
B|--7p0--8p0--10p0-------10p0--8p0--7p0--8p0--10p0-----10p0--8p0--7p0--8p0-5~~-------------|
G|-------------------------------------------------------------------
D|-------------------------------------------------------------------

and the only difference in part 2 is that instead of a vibrato on 5 it should be 12

and as a side note you can play the g string on 9 or the b string on 5..same note...and the g string on 12 or the e string on 7...also same note....thats whats so cool about rammstein...the interplayability

guest
Wanna post a correction for this tab? Suggest correction