Oops, an error
Loading. Please wait.
We have an official Mann Gegen Mann tab made by UG professional guitarists. Check out the tab »
×
9,893 views 27 this week
6 commentsread comments
1 2 3 4 5
x 5
add to favorites
×
Save as Personal and add changes to this tab that will be seen only by you. Learn more ›
×
You can save this tab as Personal to edit and correct it or add notes. All changes will be seen only by you. Learn more »
launch autoscroll
font size
0
reset
guitar tuner
edit
Autoscroll
slow
fast
+/-
esc
set tempo
stop
Author
-------------------------------------------------------------------------------
MANN GEGEN MANN – Rammstein
-------------------------------------------------------------------------------

Album: Rosenrot

Tabbed by: madbass


Meter: 4/4
Tuning: C G C F

Intro/Verse/Chorus:
    q. q. q   +e  q. q q
F|----------|-------------|
C|o---------|------------o|28x
G|o---------|------------o|
C|--0--8--0-|-(0)-5--3-5--|

Before Verse/Chorus:
   w          +w           +w           +w
F|----------|------------|------------|------------|
C|----------|------------|------------|------------|
G|-5--------|-(5)--------|-(5)--------|-(5)--------|
C|----------|------------|------------|------------|

Verse/Chorus:
    q. q. q   +e  q. q q
F|----------|-------------|
C|o---------|------------o|16x
G|o---------|------------o|
C|--0--8--0-|-(0)-5--3-5--|


Keyboard Solo:
    e e e e e e e e   e e e e e e e e   e e e e e e e e   e e e e e e e e  
F|------------------|-----------------|-----------------|-----------------|
C|o-----------------|-----------------|-----------------|-----------------|
G|o-3-5-5-5-5-5-3-5-|-5-5-5-5-3-5-5-5-|-3-5-5-5-5-5-3-5-|-5-5-5-5-3-5-5-5-|
C|------------------|-----------------|-----------------|-----------------| 

   e e e e e e e e   e e e e e e e e   e e e e e e e e   e e e e e e e e
F|-----------------|-----------------|-----------------|------------------|
C|-----------------|-----------------|-----------------|-----------------o|2x
G|-3-1-1-1-1-1-3-1-|-1-1-1-1-3-1-1-1-|-3-1-1-1-1-1-3-1-|-1-1-1-1-3-1-1-1-o|
C|-----------------|-----------------|-----------------|------------------|

Before Bridge:
    q. q. q   +e  q. q q
F|----------|-------------|
C|o---------|------------o|4x
G|o---------|------------o|
C|--0--8--0-|-(0)-5--3-5--|
Schwulah!!!

Bridge
   w      +h    q q   w      +h    q q   w      +h    q q   w      w
F|-------|-----------|------|-----------|------|-----------|------|-------|
C|o------|-------3-2-|------|-----------|------|-------3-2-|------|------o|3x
G|o-0----|-(0)-------|-1----|-(1)-----3-|-0----|-(0)-------|-1----|-3----o|
C|-------|-----------|------|-------5---|------|-----------|------|-------|

Verse/Chorus:
   q. q. q   +e  q. q q
F|---------|------------|
C|---------|------------|12x
G|---------|------------|
C|-0--8--0-|-(0)-5--3-5-|


End Note:
   q (h.)
F|-------||
C|-------||
G|-------||
C|-0-----||
          
END

-----------------------------------------------------------------------------
Tablature and Note Value Legend
-----------------------------------------------------------------------------
h=half note value
q=quarter note value
e=eighth note value
w=whole note value
.=dotted note that adds half the value to the whole value
values in parenthesis indicate that that duration is rested
fret numbers in parenthesis indicate that the duration is tied from the previous bar
+ = value tied to previous value 

            
            
Suggest correction
Creating personal tab
Creating personal tab
You can edit any tab online and save it as your Personal.

You can edit, replace or remove any tab part or add personal notes – all changes will be seen only by you.

Personal tabs can be accessed anytime from any device, even offline.
Learn more »
comments
print report bad tab
6 comments total. Showing first comments.
-1 reply
cianormo 394 Jul 02, 2006 12:02 PM

during the main riff, instead of doing 8 on the low C, do 7. It's correct, trust me.

-1 reply
madbass 641 Jul 03, 2006 10:29 AM

Believe me, cianormo, I am correct. It always goes to an 8. The series of pitches in the main riff is C, Ab, C, F, Eb, F. And that is the fret, fret 8, you have to play on to get an Ab in drop C tuning. Playing a fret 7 would be a G, NOT an Ab like it is supposed to be!

+1 reply
MotoGP 802 Aug 11, 2006 10:15 AM

could not tab the interlude, your tab is so ****ing good

guest
You may want to rate the tab now too:
select rating
Wanna post a correction for this tab? Suggest correction