Oops, an error
Loading. Please wait.
We have an official Mein Herz Brennt tab made by UG professional guitarists. Check out the tab »
×

Mein Herz Brennt tab

version 3
version 3

Whole song

Video

19,102 views 54 this week
2 commentsread comments
1 2 3 4 5
x 7
add to favorites
×
Save as Personal and add changes to this tab that will be seen only by you. Learn more ›
×
You can save this tab as Personal to edit and correct it or add notes. All changes will be seen only by you. Learn more »
launch autoscroll
font size
0
reset
how to read this tab
guitar tuner
backing track
0:00
0:00
edit
Autoscroll
slow
fast
+/-
esc
set tempo
stop
----------------------------------------------------------------------------
                        Mein Herz Brennt - Rammstein
----------------------------------------------------------------------------
Tabbed by: Bee-Ay
Email: Leviathan_ben@hotmail.com

Tuning: D-A-D-G-B-E

NOTE: This song is the first one that Rammstein experimented with the
tuning of drop C, before making it a common way of tuning for Reise, Reise.
This is heard in the verse and chorus where the bass plays an octave lower C
than the guitars. However, the verse guitars in the song deals with drop C tuning as well.
I do believe that the electric guitars are done in a drop D tune in the studio,
when a drop C tune might occur playing live, transposing all the stuff one note.
Simply to deal with the verse parts live.

Intro and Chorus:
e|-------------------------------------------------------------------|
B|-------------------------------------------------------------------|
G|*-5-5-5-5---5-5-5-5---5-5-5-5-5-5-5-5---5-5-5-5---5-5-5-5-5-5-5-5--|
D|*-5-5-5-5---5-5-5-5---5-5-5-5-5-5-5-5---5-5-5-5---5-5-5-5-5-5-5-5--|
A|--3-3-3-3---3-3-3-3---3-3-3-3-3-3-3-3---3-3-3-3---3-3-3-3-3-3-3-3--|
D|-------------------------------------------------------------------|

e|--------------------------------------------------|
B|--------------------------------------------------|
G|--5-5-5-5---5-5-5-5-5-5-5-5-5---5-5-5-5--x-x-5-6-*|
D|--5-5-5-5---5-5-5-5-5-5-5-5-5---5-5-5-5--x-x-3/4-*|
A|--3-3-3-3---3-3-3-3-3-3-3-3-3---3-3-3-3--x-x-3/4--|
D|--------------------------------------------------|


Verse riff played on acoustic guitar.
Tuning down the whole guitar isn't really that necessary for the verse part.
Bottom line is that the two lowest strings are tuned down to C and G to achieve
the drop C effect. However, all strings are listed as a complete downtune:
D|-------------|-------------|-------------|
A|-------------|-------------|-------------|
F|*------------|-------------|------------*|
C|*------------|-------------|------------*|
G|--3h5--5--5--|--3h5--5--5--|--3h5--5--5--|
C|--0-------0--|--0-------0--|--0-------0--|
pm       .             .             .


Pre-Chorus:
I know i sounds like that every chord is
played 1 time each, but its just mixed very low.
So its played in this way:
e|-------------------------------------------------|
B|-------------------------------------------------|
G|*-5-5-5-5---5-5-5-5---5-5-5-5--------------------|
D|*-5-5-5-5---5-5-5-5---5-5-5-5-3-3-3-3---3-3-3-3--|
A|--3-3-3-3---3-3-3-3---3-3-3-3-3-3-3-3---3-3-3-3--|
D|------------------------------3-3-3-3---3-3-3-3--|

e|-------------------------------------------------------------------|
B|-------------------------------------------------------------------|
G|------------------------------------------------------------------*|
D|--3-3-3-3-6-6-6-6---6-6-6-6---6-6-6-6-5-5-5-5---5-5-5-5---5-5-5-5-*|
A|--3-3-3-3-6-6-6-6---6-6-6-6---6-6-6-6-5-5-5-5---5-5-5-5---5-5-5-5--|
D|--3-3-3-3-6-6-6-6---6-6-6-6---6-6-6-6-5-5-5-5---5-5-5-5---5-5-5-5--|


This is just the last three ending notes that i have added. Breakdown to solo:
e|-------------------------------------------------------------------|
B|-------------------------------------------------------------------|
G|*-5-5-5-5---5-5-5-5---5-5-5-5-5-5-5-5---5-5-5-5---5-5-5-5-5-5-5-5--|
D|*-5-5-5-5---5-5-5-5---5-5-5-5-5-5-5-5---5-5-5-5---5-5-5-5-5-5-5-5--|
A|--3-3-3-3---3-3-3-3---3-3-3-3-3-3-3-3---3-3-3-3---3-3-3-3-3-3-3-3--|
D|-------------------------------------------------------------------|

e|------------------------------------------------------|
B|------------------------------------------------------|
G|--5-5-5-5---5-5-5-5-5-5-5-5-5---5-5-5-5--x-x-5-3-----*|
D|--5-5-5-5---5-5-5-5-5-5-5-5-5---5-5-5-5--x-x-3-1-(0)-*|
A|--3-3-3-3---3-3-3-3-3-3-3-3-3---3-3-3-3--x-x-3-1-(0)--|
D|---------------------------------------------3-1-(0)--|

[ Solo ]

With a little taste of WAH.
This part is played 2 times:
e|-----------------------------------------|
B|-----------------------------------------|
G|*----------------------------------------|
D|*-2-2-2-2--2/3--3-3--3/5--5-5--5/7--7-7--|
A|-----------------------------------------|
D|-----------------------------------------|

on the 3. time its played it says:
e|---------------------------------------------------------------------------------------|
B|---------------------------------------------------------------------------------------|
G|--------------------------------------------------------------------------------------*|
D|2-2-2-2--2/3--3-3--3/5--5-5--5/7--7-7--7/10--10-10--10/12--12-12--12/10--10/8--8/7-7~-*|
A|---------------------------------------------------------------------------------------|
D|---------------------------------------------------------------------------------------|

The rythm goes just like Pre-Chorus.
Its just 1 tone higher:
e|-------------------------------------------------|
B|-------------------------------------------------|
G|*------------------------------------------------|
D|*-7-7-7-7---7-7-7-7---7-7-7-7-5-5-5-5---5-5-5-5--|
A|--5-5-5-5---5-5-5-5---5-5-5-5-5-5-5-5---5-5-5-5--|
D|--0-0-0-0---0-0-0-0---0-0-0-0-5-5-5-5---5-5-5-5--|

e|-------------------------------------------------------------------|
B|-------------------------------------------------------------------|
G|------------------------------------------------------------------*|
D|--5-5-5-5-8-8-8-8---8-8-8-8---8-8-8-8-7-7-7-7---7-7-7-7---7-7-7-7-*|
A|--5-5-5-5-8-8-8-8---8-8-8-8---8-8-8-8-7-7-7-7---7-7-7-7---7-7-7-7--|
D|--5-5-5-5-8-8-8-8---8-8-8-8---8-8-8-8-7-7-7-7---7-7-7-7---7-7-7-7--|

I know that the first chord sounds like an open full D5 chord.
But it IS this one. It's all because it's mixed very low.

            
            
Suggest correction
Creating personal tab
Creating personal tab
You can edit any tab online and save it as your Personal.

You can edit, replace or remove any tab part or add personal notes – all changes will be seen only by you.

Personal tabs can be accessed anytime from any device, even offline.
Learn more »
comments
print report bad tab
2 comments total.
0 reply
Nuums 211 Jun 19, 2006 04:16 AM

ey, nice tab dude, 5 stars ;D
the acoustic part is something like:

e-------------------------------|
B-------------------------------|
G*-----------------------------*|
D*--8/10-10--8/10-10--8/10-10--*|
A---8/10-10--8/10-10--8/10-10---|
D---8/10-10--8/10-10--8/10-10---|

or

e---------------------------|
B---------------------------|
G*---3/5-5--3/5-5--3/5-5---*|
D*---3/5-5--3/5-5--3/5-5---*|
A----1/3-3--1/3-3--1/3-3----|
D---------------------------|

but great tab anyway

0 reply
rezr 10 Jul 28, 2012 08:10 AM

The accoustic part is actually

e----------------------------|
B----------------------------|
G*--------------------------*|
D*--------------------------*|
A----1h3--3--1h3-3--1h3------|
D----1h3--3--1h3-3--1h3------|

guest
You may want to rate the tab now too:
select rating
Wanna post a correction for this tab? Suggest correction