Oops, an error
Loading. Please wait.

Moskau tab

version 3
version 3

Whole song

Interactive

250 views 1 this week
no commentswrite comment
1 2 3 4 5
2 more votes to show rating
add to favorites
×
Save as Personal and add changes to this tab that will be seen only by you. Learn more ›
×
You can save this tab as Personal to edit and correct it or add notes. All changes will be seen only by you. Learn more »
launch autoscroll
font size
0
reset
how to read this tab
guitar tuner
backing track
0:00
0:00
edit
Autoscroll
slow
fast
+/-
esc
set tempo
stop
Song: Moskau
Artist: Rammstein
Tuning: Drop C

I'd prefer to keep this song in drop c, since
the whole album is in drop c, but if you want,
you can play this in drop d. Also, play all of
these notes on guitar 1 as slides, or else it
won't sound right.

[Intro]
(Guitar 1)

d|--------------------------------------|
A|--------------------------------------|
F|--------------------------------------| x2
C|--------------------------------------|
G|--------------------------------------|
C|-8---10---4------8---10---4------10--9|

d|--------------------------|
A|--------------------------|
F|--------------------------|
C|--------------------------|
G|--------------------------|
C|-8---10---4------8---6---4|

[Intro]
(Guitar 2 with WAH)

Play this after guitar one does the first part
one time
                  x13
d|----------------||---------------------------------------------------------|
A|----------------||---------------------------------------------------------|
F|----------------||---------------------------------------------------------|
C|-8-X-8-X-X-8-X-X||-10-X-10-X-X-10-X-X-11-X-11-X-X-11-X-X-11-X-11-X-X-11-X-X|
G|----------------||---------------------------------------------------------|
C|----------------||---------------------------------------------------------|


[Chorus 1]
(Guitar 1)

d|--------------------------------------|
A|--------------------------------------|
F|--------------------------------------|
C|--------------------------------------|
G|--------------------------------------|
C|-8---10---4------8---10---4------10--9|


[Chorus 1] 
(Guitar 2)

d|----------------|
A|----------------|
F|----------------| x8
C|-8-X-8-X-X-8-X-X|
G|----------------|
C|----------------|


[Chorus 2]
(Guitar 1)

d|---------------------------------------|
A|---------------------------------------|
F|---------------------------------------|
C|---------------------------------------|
G|---------------------------------------|
C|-8---10---4------8---10---4------10--9-|

d|--------------------------|
A|--------------------------|
F|--------------------------|
C|--------------------------|
G|--------------------------|
C|-8---10---4------8---6---4|


[Chorus 2]
(Guitar 2)

                  x13
d|----------------||---------------------------------------------------------|
A|----------------||---------------------------------------------------------|
F|----------------||---------------------------------------------------------|
C|-8-X-8-X-X-8-X-X||-10-X-10-X-X-10-X-X-11-X-11-X-X-11-X-X-11-X-11-X-X-11-X-X|
G|----------------||---------------------------------------------------------|
C|----------------||---------------------------------------------------------|


[Accordian solo]
(Guitar 1)

d|---------------------------------------|
A|---------------------------------------|
F|---------------------------------------|
C|---------------------------------------|
G|---------------------------------------|
C|-8---10---4------8---10---4------10--9-|

d|--------------------------|
A|--------------------------|
F|--------------------------|
C|--------------------------|
G|--------------------------|
C|-8---10---4------8---6---4|


[Accordian solo]
(Guitar 2)

D|-----------------|
A|-----------------|
F|-----------------|
C|-8-X-8-X-X-8-X-X-|
G|-----------------|
C|-----------------|


D|--------------------|
A|--------------------|
F|--------------------|
C|-10-X-10-X-X-10-X-X-|
G|--------------------|
C|--------------------|


D|-----------------|
A|-----------------|
F|-----------------|
C|-4-X-4-X-X-4-X-X-|
G|-----------------|
C|-----------------|


D|-----------------|
A|-----------------|
F|-----------------|
C|-8-X-8-X-X-8-X-X-|
G|-----------------|
C|-----------------|


D|--------------------|
A|--------------------|
F|--------------------|
C|-10-X-10-X-X-10-X-X-|
G|--------------------|
C|--------------------|


D|-------------------|
A|-------------------|
F|-------------------| x2
C|-11-X-11-X-X-11-X-X|
G|-------------------|
C|-------------------|


[Accordian solo]
(Translated to guitar)

D|--9----9-7--6-----6------6-8------9----9-8--6------|
A|----6---------9---------------------6---------9----|
F|----------------6-------------------------------6--| x2
C|---------------------------------------------------|
G|---------------------------------------------------|
C|---------------------------------------------------|


[Bridge: pt.1]
(Guitar 1 ONLY)

d|------------------------|
A|------------------------|
F|------------------------|
C|------------------------|
G|------------------------|
C|-2-////-9-\\\\-7-\\\\-3~|


[Bridge pt. 2]
(Guitar 2 ONLY)

D|----------------|
A|----------------|
F|----------------| x16
C|-8-X-8-X-X-8-X-X|
G|----------------|
C|----------------|


[Outro Chorus]
(Guitar 1)

d|--------------------------------------------|
A|--------------------------------------------|
F|--------------------------------------------|
C|--------------------------------------------|
G|--------------------------------------------|
C|-8---10---11---13------8---10---11---16--15-|

d|--------------------------------------|
A|--------------------------------------|
F|--------------------------------------|
C|--------------------------------------|
G|--------------------------------------|
C|-8---10---11---13---15------8---6---4-|

d|------------|
A|------------|
F|------------| x2
C|------------|
G|------------|
C|-8---10---4~|


[Outro Chorus]
(Guitar 2)

D|----------------|
A|----------------|
F|----------------| x32
C|-8-X-8-X-X-8-X-X|
G|----------------|
C|----------------|


[Ending Riff]
(Guitar 1 ONLY)

d|---|
A|---|
F|---|
C|---|
G|-6-|
C|-6-|



************************************

| /  Slide up
| \  Slide down
| ~  Vibrato 

************************************

            
            
Suggest correction
Creating personal tab
Creating personal tab
You can edit any tab online and save it as your Personal.

You can edit, replace or remove any tab part or add personal notes – all changes will be seen only by you.

Personal tabs can be accessed anytime from any device, even offline.
Learn more »
Give kudos to tab author, rate the tab!
1 2 3 4 5
comments
print report bad tab
guest
You may want to rate the tab now too:
select rating
Wanna post a correction for this tab? Suggest correction