Oops, an error
Loading. Please wait.
We have an official Pussy tab made by UG professional guitarists. Check out the tab »
×
1,806 views 1 this week
1 commentread comment
1 2 3 4 5
x 3
add to favorites
×
Save as Personal and add changes to this tab that will be seen only by you. Learn more ›
×
You can save this tab as Personal to edit and correct it or add notes. All changes will be seen only by you. Learn more »
launch autoscroll
font size
0
reset
guitar tuner
backing track
0:00
0:00
edit
Autoscroll
slow
fast
+/-
esc
set tempo
stop
My first bass tab so if you habe any questions send me an email @ uni69@web.de

Intro
G------------------------------------------------------------|
D------------------------------------------------------------|
A----------33333333-00000000---------------------------------|
E----------------------------1111-3333-----------------------|
B-33333333---------------------------------------------------|

G------------------------------------------------------------|
D------------------------------------------------------------|
A----------33333333-00000000---------------------------------|
E----------------------------1111-0000-----------------------|
B-33333333---------------------------------------------------|

x2

Verse
G------------------------------------------------------------|
D------------------------------------------------------------|
A----------33333333-00000000---------------------------------|
E----------------------------1111-3333-----------------------|
B-33333333---------------------------------------------------|

G------------------------------------------------------------|
D------------------------------------------------------------|
A----------33333333-0000000000000000-------------------------|
E------------------------------------------------------------|
B-33333333---------------------------------------------------|

Pre Chorus

G------------------------------------------------------------|
D------------------------------------------------------------|
A----------33333333-00000000---------------------------------|
E----------------------------1111-3333-----------------------|
B-33333333---------------------------------------------------|

G------------------------------------------------------------|
D------------------------------------------------------------|
A--1111111111111111----------33333333------------------------|
E-------------------33333333---------------------------------|
B------------------------------------------------------------|

Chorus

G------------------------------------------------------------|
D------------------------------------------------------------|
A----------33333333-00000000---------------------------------|
E----------------------------1111-3333-----------------------|
B-33333333---------------------------------------------------|

G------------------------------------------------------------|
D------------------------------------------------------------|
A----------33333333-00000000---------------------------------|
E----------------------------1111-0000-----------------------|
B-33333333---------------------------------------------------|

x2

Little Basssolo ;)

G-------------------------------------------------------------|
D-------------------------------------------------------------|
A--------1-----1-0-3-1-0--------------------------------------|
E-------------------------------------------------------------|
B----333-----3------------------------------------------------|

G------------------------------------------------------------|
D------------------------------------------------------------|
A--------1-----1-0-3-1-0-------------------------------------|
E------------------------------------------------------------|
B----333-----3-----------------------------------------------|

Break at 3:15

let it ring,if u have Problems listen to the Song ;)

G------------------------------------------------------------|
D------------------------------------------------------------|
A--------3-----0---------------------------------------------|
E-------------------1-----3----------------------------------|
B---3--------------------------------------------------------|

G------------------------------------------------------------|
D------------------------------------------------------------|
A--------3-----0---------------------------------------------|
E------------------------------------------------------------|
B---3--------------------------------------------------------|

Chorus

G------------------------------------------------------------|
D------------------------------------------------------------|
A----------33333333-00000000---------------------------------|
E----------------------------1111-3333-----------------------|
B-33333333---------------------------------------------------|

G------------------------------------------------------------|
D------------------------------------------------------------|
A----------33333333-00000000---------------------------------|
E----------------------------1111-0000-----------------------|
B-33333333---------------------------------------------------|

G------------------------------------------------------------|
D------------------------------------------------------------|
A----------33333333-00000000---------------------------------|
E----------------------------1111-3333-----------------------|
B-33333333---------------------------------------------------|

G------------------------------------------------------------|
D------------------------------------------------------------|
A----------33333333-00000000---------------------------------|
E----------------------------1--0----------------------------|
B-33333333-------------------------3-------------------------|

            
            
Suggest correction
Creating personal tab
Creating personal tab
You can edit any tab online and save it as your Personal.

You can edit, replace or remove any tab part or add personal notes – all changes will be seen only by you.

Personal tabs can be accessed anytime from any device, even offline.
Learn more »
Give kudos to tab author, rate the tab!
1 2 3 4 5
comments
print report bad tab
1 comment total.
0 reply
shcherno 10 Aug 03, 2016 03:02 PM, edited at 07:06 pm

The end of the pre-chorus sounds better if it ends on the A rather than the C. Other than that, great job.

guest
You may want to rate the tab now too:
select rating
Wanna post a correction for this tab? Suggest correction