Oops, an error
Loading. Please wait.
We have an official Reise Reise tab made by UG professional guitarists. Check out the tab »
×
43,762 views 27 this week
4 commentsread comments
1 2 3 4 5
x 12
add to favorites
×
Save as Personal and add changes to this tab that will be seen only by you. Learn more ›
×
You can save this tab as Personal to edit and correct it or add notes. All changes will be seen only by you. Learn more »
launch autoscroll
font size
0
reset
how to read this tab
guitar tuner
backing track
0:00
0:00
edit
Autoscroll
slow
fast
+/-
esc
set tempo
stop
Rammstein-Reise, Reise (Arise, Arise)
Drop C

[Intro](basically the whole song) heavy distortion
D|--------------------------|
A|--------------------------|
F|--------------------------|
C|--------------------------|
G|-1--4--8--6--1--1--11-0---|
C|-1--4--8--6--1--1--11-0---|(2X)

D|--------------------------|
A|--------------------------|
F|--------------------------|
C|--------------------------|
G|-1-0-1--1-0--1-0-1--1-1-0-|
C|-1-0-1--1-0--1-0-1--1-1-0-|(4X)

(accordion plays verses)
D|--------------------------|
A|--------------------------|
F|--------------------------|
C|--------------------------|
G|-1------------4-----------|
C|-1------------4-----------|
 REISE, REISE SEEMANN REISE
 ARISE, ARISE SEAMAN  ARISE

D|---------------------------|
A|---------------------------|
F|---------------------------|
C|---------------------------|
G|-8---------------6---------|
C|-8---------------6---------|
 JEDER TUT'S AUF SEINE WEISE
 EACH DOES IT IN HIS OWN WAY

D|---------------------------|
A|---------------------------|
F|---------------------------|
C|---------------------------|
G|-1-------------------------|
C|-1-------------------------|
 DER EINE STOSST DEN SPEER ZUM MANN
 ONE THRUSTS A SPEER INTO A MAN

D|---------------------------|
A|---------------------------|
F|---------------------------|
C|---------------------------|
G|-11------------------------|
C|-11------------------------|
 DER ANDERE ZUM FISCHE DUNN
 ANOTHER THEN INTO A FISH

D|---------------------------|
A|---------------------------|
F|---------------------------|
C|---------------------------|
G|-1-------------4-----------|
C|-1-------------4-----------|
 REISE, REISE, SEEMANN REISE
 ARISE, ARISE, SEAMAN, ARISE

D|---------------------------|
A|---------------------------|
F|---------------------------|
C|---------------------------|
G|-8----------------6--------|
C|-8----------------6--------|
   UND DIE WELLEN WEISE LEISE
   AND THE WAVES  CRY   SOFTLY

D|---------------------------|
A|---------------------------|
F|---------------------------|
C|---------------------------|
G|-1-------------------------|
C|-1-------------------------|
 IN IHREM BLUTE STECKT EIN SPEER
 IN THEIR BLOOD A SPEER IS LODGED

D|---------------------------|
A|---------------------------|
F|---------------------------|
C|---------------------------|
G|-11------------------------|
C|-11------------------------|
 BLUTEN LEISE IN DAS MEER
 THEY BLEED SOFTLY INTO THE OCEAN

D|---------------------------|
A|---------------------------|
F|---------------------------|
C|---------------------------|
G|-1-0-1--1-0--1-0-1--1-1-0--|
C|-1-0-1--1-0--1-0-1--1-1-0--| 4X

(accordion plays verses)

D|---------------------------|
A|---------------------------|
F|---------------------------|
C|---------------------------|
G|-1-------------4-----------|
C|-1-------------4-----------|
 REISE, REISE, SEEMANN REISE
 ARISE, ARISE, SEAMAN, ARISE

D|---------------------------|
A|---------------------------|
F|---------------------------|
C|---------------------------|
G|-8---------------6---------|
C|-8---------------6---------|
 JEDER TUT'S AUF SEINE WEISE
 EACH DOES IT IN HIS OWN WAY

D|---------------------------|
A|---------------------------|
F|---------------------------|
C|---------------------------|
G|-1-------------------------|
C|-1-------------------------|
 DER EINE STOSST DEN SPEER ZUM MANN
 ONE THRUSTS A SPEER INTO A MAN

D|---------------------------|
A|---------------------------|
F|---------------------------|
C|---------------------------|
G|-11------------------------|
C|-11------------------------|
 DER ANDERE ZUM FISCHE DUNN
 ANOTHER THEN INTO A FISH

D|---------------------------|
A|---------------------------|
F|---------------------------|
C|---------------------------|
G|-1-------------4-----------|
C|-1-------------4-----------|
 REISE, REISE, SEEMANN REISE
 ARISE, ARISE, SEAMAN, ARISE

D|---------------------------|
A|---------------------------|
F|---------------------------|
C|---------------------------|
G|-8----------------6--------|
C|-8----------------6--------|
   UND DIE WELLEN WEISE LEISE
   AND THE WAVES  CRY   SOFTLY

D|---------------------------|
A|---------------------------|
F|---------------------------|
C|---------------------------|
G|-1-------------------------|
C|-1-------------------------|
 IN IHREM BLUTE STECKT EIN SPEER
 IN THEIR BLOOD A SPEER IS LODGED

D|----------------------------|
A|----------------------------|
F|----------------------------|
C|----------------------------|
G|-11-----------------------1-|
C|-11-----------------------1-|
 BLUTEN LEISE IN DAS MEER
 THEY BLEED SOFTLY INTO THE OCEAN
(PLAY CHORUS TWICE FOR ACCORDION SOLO)

D|---------------------------|
A|---------------------------|
F|---------------------------|
C|---------------------------|
G|-1-------------4-----------|
C|-1-------------4-----------|
   REISE, REISE, SEEMANN REISE
   ARISE, ARISE, SEAMAN, ARISE

D|---------------------------|
A|---------------------------|
F|---------------------------|
C|---------------------------|
G|-8----------------6--------|
C|-8----------------6--------|
     UND DIE WELLEN WEISE LEISE
     AND THE WAVES  CRY   SOFTLY

D|---------------------------|
A|---------------------------|
F|---------------------------|
C|---------------------------|
G|-1-------------------------|
C|-1-------------------------|
 IN IHREM HERZEN STECKT EIN SPEER
 IN THEIR HEARTS A SPEER IS LODGED

D|---------------------------|
A|---------------------------|
F|---------------------------|
C|---------------------------|
G|-11------------------------|
C|-11------------------------|
 BLUTEN SICH AM UFER LEER
 THEY BLEED THEMSELVES DRY ON THE SHORE

D|--------------------------|
A|--------------------------|
F|--------------------------|
C|--------------------------|
G|-1------------4-----------|
C|-1------------4-----------|

D|---------------------------|
A|---------------------------|
F|---------------------------|
C|---------------------------|
G|-8---------------6---------|
C|-8---------------6---------|

D|-----------------------------|
A|-----------------------------|
F|-----------------------------|
C|-----------------------------|
G|-1------------------------11-|
C|-1------------------------11-|
   BLUTEN SICH AM UFER LEER
   THEY BLEED THEMSELVES DRY ON THE SHORE

D|---|
A|---|
F|---|
C|---|
G|-1-|
C|-1-|

            
            
Suggest correction
Creating personal tab
Creating personal tab
You can edit any tab online and save it as your Personal.

You can edit, replace or remove any tab part or add personal notes – all changes will be seen only by you.

Personal tabs can be accessed anytime from any device, even offline.
Learn more »
comments
print report bad tab
4 comments total. Showing first comments.
-1 reply
metallover123 10 Jun 13, 2013 02:17 AM

if you listen carefully you'll notice this is actually th correct riff

----------------------------|
----------------------------|
----------------------------|
----------------------------|
-1-0-1--1-0-0--1-0-1--1-1-0-|
-1-0-1--1-0-0--1-0-1--1-1-0-| 4X

-1 reply
NickCakeTrembla 10 Dec 17, 2013 12:46 PM

Reise means voyage, trip, travel. Not Arise. stupid man.

+3 reply
Domguy99 30 Sep 20, 2014 06:39 PM

Reise means Arise in the context of this song. It's a German saying. You won't figure it out through google translate.

guest
You may want to rate the tab now too:
select rating
Wanna post a correction for this tab? Suggest correction