Oops, an error
Loading. Please wait.
We have an official Rosenrot tab made by UG professional guitarists. Check out the tab »
×

Rosenrot bass

10,124 views 9 this week
6 commentsread comments
1 2 3 4 5
x 11
add to favorites
×
Save as Personal and add changes to this tab that will be seen only by you. Learn more ›
×
You can save this tab as Personal to edit and correct it or add notes. All changes will be seen only by you. Learn more »
launch autoscroll
font size
0
reset
guitar tuner
edit
Autoscroll
slow
fast
+/-
esc
set tempo
stop
Author
Difficulty
Song: Rosenrot
Band: Rammstein
Tabbed by: cianormo

A true Rammstein song. Distortion’s used on the bass throughout the entire song.

4 string

Main Riff
F|----------------------------------------------------------------|
C|----------------------------------------------------------------|
G|-5-5-5-5-5-5-5-5-----------------5-5-5-5-5-5-5-5-----------8-8-8|
C|-----------------8-8-8-8-8-8-8-8-----------------8-8-8-8-8------|

Chorus
F|----------------------------------------------------------------|
C|----------------------------------------------------------------|
G|----------------------------------------------------------------|
C|-0-0-0-0-0-0-0-0-8-8-8-8-8-8-8-8-0-0-0-0-0-0-0-0-8-8-8-8-8-3-3-3|

Bridge
F|----------------------------------------------------------------|
C|----------------------------------------------------------------|
G|-5-3---5-3---5-3-6-3---6-3---6-3-5-3---5-3---5-3-3-1---3-1---3-1|
C|-----0-----0---------0-----0---------0-----0---------0-----0----|

End
F|----------------------------------------------------------------|
C|----------------------------------------------------------------|
G|-5--------------------------------------------------------------|
C|----------------------------------------------------------------|




5 string

Main riff
G|----------------------------------------------------------------|
D|----------------------------------------------------------------|
A|-3-3-3-3-3-3-3-3-----------------3-3-3-3-3-3-3-3-----------6-6-6|
E|-----------------4-4-4-4-4-4-4-4-----------------4-4-4-4-4------|
B|----------------------------------------------------------------|

Chorus
G|----------------------------------------------------------------|
D|----------------------------------------------------------------|
A|----------------------------------------------------------------|
E|-----------------4-4-4-4-4-4-4-4-----------------4-4-4-4-4------|
B|-1-1-1-1-1-1-1-1-----------------1-1-1-1-1-1-1-1-----------4-4-4|

Bridge
G|----------------------------------------------------------------|
D|----------------------------------------------------------------|
A|-3-1---3-1---3-1-4-1---4-1---4-1-3-1---3-1---3-1-1-----1-----1--|
E|---------------------------------------------------4-----4-----4|
B|-----1-----1---------1-----1---------1-----1---------1-----1----|

End
G|----------------------------------------------------------------|
D|----------------------------------------------------------------|
A|-3--------------------------------------------------------------|
E|----------------------------------------------------------------|
B|----------------------------------------------------------------|

Song structure:
Main riff x5
Chorus x2
Main riff x4
Chorus x4
Bridge x2
Main riff x4
Chorus x4
Bridge x4
End x1

Simple. This IS 100% correct, trust me.

Please rate!

Enjoy!!!

            
            
Suggest correction
Creating personal tab
Creating personal tab
You can edit any tab online and save it as your Personal.

You can edit, replace or remove any tab part or add personal notes – all changes will be seen only by you.

Personal tabs can be accessed anytime from any device, even offline.
Learn more »
comments
print report bad tab
6 comments total. Showing first comments.
-1 reply
fatpratmatt 41 Jan 16, 2008 10:43 AM

But whyyy should we trust you? :)

0 reply
cianormo 394 Jan 16, 2008 11:42 PM

Because I'm right. ;)

+1 reply
pnkflyd828 10 May 07, 2008 01:14 PM

beastly.

guest
You may want to rate the tab now too:
select rating
Wanna post a correction for this tab? Suggest correction