Oops, an error
Loading. Please wait.
We have an official Seemann tab made by UG professional guitarists. Check out the tab »
×
97,891 views 198 this week
25 commentsread comments
1 2 3 4 5
x 54
add to favorites
×
Save as Personal and add changes to this tab that will be seen only by you. Learn more ›
×
You can save this tab as Personal to edit and correct it or add notes. All changes will be seen only by you. Learn more »
launch autoscroll
font size
0
reset
guitar tuner
edit
Autoscroll
slow
fast
+/-
esc
set tempo
stop
Author
Unregistered
Seemann - Rammstein

By: Jon Craven (i_apathy@hotmail.com)
For questions, comments, feedback, an outline of the timing, write the above
address.

Notes:
  - Oliver uses a banjo style finger picking for the verse and chorus.
  - The tempo seems between 70 and 71 bpm; using a metrinome, you'll notice it
seems off.

(4/4)(70 bpm)
Standard tuning


[Verse/Chorus] (x4) 

(0:07)

G|---18-----16-----14-----13--|---11----11----13----13----|
D|-14--14-14--14-14--14-14--14|--9--9--9--9--9--9--9--9---|
A|0------0------0------0------|11----11----11----11-------|
E|----------------------------|---------------------------|

G|---14-----13-----11-----9--|----------------------------|
D|-11--11-11--11-11--11-11-11|---11-----10-----11-----11--|
A|9------9------9------9-----|-11--11-11--11-11--11-11--11|
E|---------------------------|9------9------9------9------|


[Chorus]

[Verse]  (x2)

[Chorus] (x5)


[Fill] 

(2:51)

G|----------------|------------------|
D|----------------|------------------|
A|----------------|------------------|
E|0-*-*-*-*-*-*-*-|0-0-0-*-*-*-*-*-*-|


[Verse] (x2)

[Chorus](x4)

[Fill]


[Outro]

(4:27)

G|---18-----16-----14-----13--|---11----11----13----13-|
D|-14--14-14--14-14--14-14--14|--9--9--9--9--9--9--9--9|
A|0------0------0------0------|11----11----11----11----|
E|----------------------------|------------------------|
                                                   
                                                   (hold till end)

G|---14-----13-----11-----9--|----------------------|----------------|
D|-11--11-11--11-11--11-11-11|-----11---------10----|----------------|
A|9------9------9------9-----|--11----11---11----11-|----------------|
E|---------------------------|9----------9----------|9-*-*-*-*-*-*-*-|



************************************

* - note held for an eighth beat
h - hammer-on
p - pull-off

************************************

            
            
Suggest correction
Creating personal tab
Creating personal tab
You can edit any tab online and save it as your Personal.

You can edit, replace or remove any tab part or add personal notes – all changes will be seen only by you.

Personal tabs can be accessed anytime from any device, even offline.
Learn more »
comments
print report bad tab
25 comments total. Showing first comments.
+4 reply
SOADRox 101 Mar 11, 2006 09:59 AM

Excellent tab! Absolutely flawless!

+4 reply
SlaytanicdS 62 Mar 26, 2006 10:11 AM

Awesome Good Job!!!!!!!!!!!!

+1 reply
CorBe 350 Apr 23, 2006 05:38 PM

It would have taken me years to get this one right!
well done, and thanx for tabbing rammstien. I swear they are lepers to bassplayers

guest
Wanna post a correction for this tab? Suggest correction