Oops, an error
Loading. Please wait.
We have an official Spieluhr tab made by UG professional guitarists. Check out the tab »
×
11,919 views 12 this week
1 commentread comment
1 2 3 4 5
x 7
add to favorites
×
Save as Personal and add changes to this tab that will be seen only by you. Learn more ›
×
You can save this tab as Personal to edit and correct it or add notes. All changes will be seen only by you. Learn more »
launch autoscroll
font size
0
reset
how to read this tab
guitar tuner
edit
Autoscroll
slow
fast
+/-
esc
set tempo
stop
Artist: Rammstein
Album: Mutter
Song: Spieluhr

Guitar I – Paul H. Landers (DADGBe)
Guitar II – Richard Z. Kruspe (DADGBe)
Guitar III – Christian “Flake” Lorenz (DADGBe)


Intro - Guitar III (clean)
       Part A                                       Part B                               
       Part C
E||---------------------|----------------------|---------------------------||
B||---------------------|----------------------|---------------------------||
G||---------------------|----------------------|---10--14-12--14-10--------||
D||---12--15-14---15-12-|---12--15-14----15-12-|-10--10-----10-------------||
A||-12--12------12------|-13--13------13-------|---------------------------||
D||---------------------|----------------------|---------------------------||

   Part D
E||---------------------||
B||---------------------||
G||---9---12-10----12-9-||
D||-10-10-------10------||
A||---------------------||
D||---------------------||


Guitar I/ Guitar II (Distorted)
E||-----------------------------------------------------------------------|
B||-----------------------------------------------------------------------|
G||-----------------------------------------------------------------------|
D||-0--3-0-0-3-0-0-3-0-3-0-0-3-0-0-3-00-3-0-0-3-0-0-3-0-3-0-0-3-0-6-6-6---| X2
A||-0--3-0-0-3-0-0-3-0-3-0-0-3-0-0-3-00-3-0-0-3-0-0-3-0-3-0-0-3-0-6-6-6---|
D||-0--3-0-0-3-0-0-3-0-3-0-0-3-0-0-3-00-3-0-0-3-0-0-3-0-3-0-0-3-0-6-6-6---|
p.m .    . .   . .   .   . .   . .   ..   . .   . .   .   . .   .

Guitar III Plays the same notes only an Octave higher (I think :P) i.e. he plays 15 12 
instead of 3 0 0, and 15 12 18 18 18 instead of 3 0 6 6 6  (You might also want to use a 
or something, to get the right sound for the Keyboard part)

Verse 1, 1st half (Bass only)
E||-------|-------|-------|-------|-------|-------|-------|-------|-------|
B||-------|-------|-------|-------|-------|-------|-------|-------|-------|
G||-------|-------|-------|-------|-------|-------|-------|-------|-------|
D||-------|-------|-------|-------|-------|-------|-------|-------|-------|
A||-------|-------|-------|-------|-------|-------|-------|-------|-------|
D||-------|-------|-------|-------|-------|-------|-------|-------|-------|
Der erste Schnee das Grab bedeckt
hat ganz sanft das Kind geweckt
in einer kalten Winternacht
ist das kleine Herz erwacht

Guitar I/ Guitar II (Distorted) + Guitar III’s part (an octave up)
E||-----------------------------------------------------------------------|
B||-----------------------------------------------------------------------|
G||-----------------------------------------------------------------------|
D||-0--3-0-0-3-0-0-3-0-3-0-0-3-0-0-3-00-3-0-0-3-0-0-3-0-3-0-0-3-0-6-6-6---| X1
A||-0--3-0-0-3-0-0-3-0-3-0-0-3-0-0-3-00-3-0-0-3-0-0-3-0-3-0-0-3-0-6-6-6---|
D||-0--3-0-0-3-0-0-3-0-3-0-0-3-0-0-3-00-3-0-0-3-0-0-3-0-3-0-0-3-0-6-6-6---|
p.m .    . .   . .   .   . .   . .   ..   . .   . .   .   . .   .


Verse 1, 2nd half (Guitar III) (Distorted)
E||---------------------------------------------------------------------------|
B||---------------------------------------------------------------------------|
G||---------------------------------------------------------------------------|
D||---------------------------------------------------------------------------|
A||---------------------------------------------------------------------------|
D||-15-12-12-15-12-12-15-12-15-12-12-15-12-12-15-1212-15-12-12-15-12-12-15-12-|

E||-------------------------|
B||-------------------------|
G||-------------------------|
D||-------------------------| X2
A||-------------------------|
D||-15-12-12-15-12-18-18-18-|

Guitar I/ Guitar II (Come in on the last three notes of the verse, with the word “Kind”)
E||-------|
B||-------|
G||-------|
D||-6-6-6-|
A||-6-6-6-|
D||-6-6-6-|


Als der Frost ins Kind geflogen
hat es die Spieluhr aufgezogen
eine Melodie im Wind
und aus der Erde singt das Kind

Chorus
Guitar I/ Guitar II (Distorted)

E||---------------------------------------------------------------|
B||---------------------------------------------------------------|
G||-7-7-7-7-7-7-7-7-7-7-7-7-7-7-7--5-5-5-5-5-5-5-5-5-5-5-5-5-5-5--|
D||-7-7-7-7-7-7-7-7-7-7-7-7-7-7-7--5-5-5-5-5-5-5-5-5-5-5-5-5-5-5--|
A||-5-5-5-5-5-5-5-5-5-5-5-5-5-5-5--3-3-3-3-3-3-3-3-3-3-3-3-3-3-3--|
D||---------------------------------------------------------------|

      Hoppe hoppe Reiter                          und kein Engel steigt herab

E||-----------------------------------------------------------------|
B||-----------------------------------------------------------------|
G||-3-3-3-3-3-3-3-3-3-3-3-3-3-3-5-5---------------------------------|
D||-3-3-3-3-3-3-3-3-3-3-3-3-3-3-5-5--3-3-3-3-3-3-3-3-7-7-7-7-7-7-7-7|
A||-1-1-1-1-1-1-1-1-1-1-1-1-1-1-3-3--3-3-3-3-3-3-3-3-7-7-7-7-7-7-7-7|
D||----------------------------------3-3-3-3-3-3-3-3-7-7-7-7-7-7-7-7|

  mein Herz schlägt nicht mehr weiter        und aus der Erde singt das Kind

E||---------------------------------------------------------------|
B||---------------------------------------------------------------|
G||-7-7-7-7-7-7-7-7-7-7-7-7-7-7-7--5-5-5-5-5-5-5-5-5-5-5-5-5-5-5--|
D||-7-7-7-7-7-7-7-7-7-7-7-7-7-7-7--5-5-5-5-5-5-5-5-5-5-5-5-5-5-5--|
A||-5-5-5-5-5-5-5-5-5-5-5-5-5-5-5--3-3-3-3-3-3-3-3-3-3-3-3-3-3-3--|
D||---------------------------------------------------------------|

      Hoppe hoppe Reiter                          eine Melodie im Wind

E||-----------------------------------------------------------------|
B||-----------------------------------------------------------------|
G||-3-3-3-3-3-3-3-3-3-3-3-3-3-3-5-5---------------------------------|
D||-3-3-3-3-3-3-3-3-3-3-3-3-3-3-5-5--3-3-3-3-3-3-3-3-7-7-7-7-7-7-7-7|
A||-1-1-1-1-1-1-1-1-1-1-1-1-1-1-3-3--3-3-3-3-3-3-3-3-7-7-7-7-7-7-7-7|
D||----------------------------------3-3-3-3-3-3-3-3-7-7-7-7-7-7-7-7|

  mein Herz schlägt nicht mehr weiter        und aus der Erde singt das Kind

(Little bass break)


Guitar I/ Guitar II + Guitar III’s part (an octave up)
E||-----------------------------------------------------------------------|
B||-----------------------------------------------------------------------|
G||-----------------------------------------------------------------------|
D||-0--3-0-0-3-0-0-3-0-3-0-0-3-0-0-3-00-3-0-0-3-0-0-3-0-3-0-0-3-0-6-6-6---| X1
A||-0--3-0-0-3-0-0-3-0-3-0-0-3-0-0-3-00-3-0-0-3-0-0-3-0-3-0-0-3-0-6-6-6---|
D||-0--3-0-0-3-0-0-3-0-3-0-0-3-0-0-3-00-3-0-0-3-0-0-3-0-3-0-0-3-0-6-6-6---|
p.m .    . .   . .   .   . .   . .   ..   . .   . .   .   . .   .


Verse 2

Guitar I/ Guitar II (Clean) (You can work out the timing by listening to the song)
E||-------------------------------------------------|
B||-------------------------------------------------|
G||-------------------------------------------------|
D||---3--3---3--3---3---3--3---3---3--3-----6-6-6---| X1
A||---3--3---3--3---3---3--3---3---3--3-----6-6-6---|
D||---3--3---3--3---3---3--3---3---3--3-----6-6-6---|

E||--------------------------------------------------|
B||--------------------------------------------------|
G||--------------------------------------------------|
D||---3--3---3--3---3---3--3---3---3--3---3--6-6-6---| X3
A||---3--3---3--3---3---3--3---3---3--3---3--6-6-6---|
D||---3--3---3--3---3---3--3---3---3--3---3--6-6-6---|

Der kalte Mond in voller Pracht
hört die Schreie in der Nacht
und kein Engel steigt herab
nur der Regen weint am Grab
Zwischen harten Eichendielen
wird es mit der Spieluhr spielen
eine Melodie im Wind
und aus der Erde singt das Kind

Chorus
Guitar I/ Guitar II (Distorted)

E||---------------------------------------------------------------|
B||---------------------------------------------------------------|
G||-7-7-7-7-7-7-7-7-7-7-7-7-7-7-7--5-5-5-5-5-5-5-5-5-5-5-5-5-5-5--|
D||-7-7-7-7-7-7-7-7-7-7-7-7-7-7-7--5-5-5-5-5-5-5-5-5-5-5-5-5-5-5--|
A||-5-5-5-5-5-5-5-5-5-5-5-5-5-5-5--3-3-3-3-3-3-3-3-3-3-3-3-3-3-3--|
D||---------------------------------------------------------------|

      Hoppe hoppe Reiter                          und kein Engel steigt herab


E||-----------------------------------------------------------------|
B||-----------------------------------------------------------------|
G||-3-3-3-3-3-3-3-3-3-3-3-3-3-3-5-5---------------------------------|
D||-3-3-3-3-3-3-3-3-3-3-3-3-3-3-5-5--3-3-3-3-3-3-3-3-7-7-7-7-7-7-7-7|
A||-1-1-1-1-1-1-1-1-1-1-1-1-1-1-3-3--3-3-3-3-3-3-3-3-7-7-7-7-7-7-7-7|
D||----------------------------------3-3-3-3-3-3-3-3-7-7-7-7-7-7-7-7|

  mein Herz schlägt nicht mehr weiter        und aus der Erde singt das Kind

E||---------------------------------------------------------------|
B||---------------------------------------------------------------|
G||-7-7-7-7-7-7-7-7-7-7-7-7-7-7-7--5-5-5-5-5-5-5-5-5-5-5-5-5-5-5--|
D||-7-7-7-7-7-7-7-7-7-7-7-7-7-7-7--5-5-5-5-5-5-5-5-5-5-5-5-5-5-5--|
A||-5-5-5-5-5-5-5-5-5-5-5-5-5-5-5--3-3-3-3-3-3-3-3-3-3-3-3-3-3-3--|
D||---------------------------------------------------------------|

      Hoppe hoppe Reiter                          eine Melodie im Wind

E||-----------------------------------------------------------------|
B||-----------------------------------------------------------------|
G||-3-3-3-3-3-3-3-3-3-3-3-3-3-3-5-5---------------------------------|
D||-3-3-3-3-3-3-3-3-3-3-3-3-3-3-5-5--3-3-3-3-3-3-3-3-7-7-7-7-7-7-7-7|
A||-1-1-1-1-1-1-1-1-1-1-1-1-1-1-3-3--3-3-3-3-3-3-3-3-7-7-7-7-7-7-7-7|
D||----------------------------------3-3-3-3-3-3-3-3-7-7-7-7-7-7-7-7|

  mein Herz schlägt nicht mehr weiter        und aus der Erde singt das Kind

During the second repeat of the Chorus Guitar III plays the intro pieces again (Clean)

The order for Guitar III is: Part A, Part B, Part A, Part C, Part D. (Sorry to be vague 
you can work out the timing for it :D)

E||---------------------------------------------------------------|
B||---------------------------------------------------------------|
G||-7-7-7-7-7-7-7-7-7-7-7-7-7-7-7--5-5-5-5-5-5-5-5-5-5-5-5-5-5-5--|
D||-7-7-7-7-7-7-7-7-7-7-7-7-7-7-7--5-5-5-5-5-5-5-5-5-5-5-5-5-5-5--|
A||-5-5-5-5-5-5-5-5-5-5-5-5-5-5-5--3-3-3-3-3-3-3-3-3-3-3-3-3-3-3--|
D||---------------------------------------------------------------|

      Hoppe hoppe Reiter                          und kein Engel steigt herab

E||-----------------------------------------------------------------|
B||-----------------------------------------------------------------|
G||-3-3-3-3-3-3-3-3-3-3-3-3-3-3-5-5---------------------------------|
D||-3-3-3-3-3-3-3-3-3-3-3-3-3-3-5-5--3-3-3-3-3-3-3-3-7-7-7-7-7-7-7-7|
A||-1-1-1-1-1-1-1-1-1-1-1-1-1-1-3-3--3-3-3-3-3-3-3-3-7-7-7-7-7-7-7-7|
D||----------------------------------3-3-3-3-3-3-3-3-7-7-7-7-7-7-7-7|

  mein Herz schlägt nicht mehr weiter        und aus der Erde singt das Kind

E||---------------------------------------------------------------|
B||---------------------------------------------------------------|
G||-7-7-7-7-7-7-7-7-7-7-7-7-7-7-7--5-5-5-5-5-5-5-5-5-5-5-5-5-5-5--|
D||-7-7-7-7-7-7-7-7-7-7-7-7-7-7-7--5-5-5-5-5-5-5-5-5-5-5-5-5-5-5--|
A||-5-5-5-5-5-5-5-5-5-5-5-5-5-5-5--3-3-3-3-3-3-3-3-3-3-3-3-3-3-3--|
D||---------------------------------------------------------------|

      Hoppe hoppe Reiter                          eine Melodie im Wind

E||-----------------------------------------------------------------|
B||-----------------------------------------------------------------|
G||-3-3-3-3-3-3-3-3-3-3-3-3-3-3-5-5---------------------------------|
D||-3-3-3-3-3-3-3-3-3-3-3-3-3-3-5-5--3-3-3-3-3-3-3-3-7-7-7-7-7-7-7-7|
A||-1-1-1-1-1-1-1-1-1-1-1-1-1-1-3-3--3-3-3-3-3-3-3-3-7-7-7-7-7-7-7-7|
D||----------------------------------3-3-3-3-3-3-3-3-7-7-7-7-7-7-7-7|

  mein Herz schlägt nicht mehr weiter        und aus der Erde singt das Kind


Interlude: Guitar III plays the intro again, in the order it is first played (Clean)

Am Totensonntag hörten sie
aus Gottes Acker diese Melodie
da haben sie es ausgebettet
das kleine Herz im Kind gerettet

Solo
Guitar II (Distorted, Wah Wah pedal) (p.s all the note amounts are just an approximation)

|--------------------------|----------------------------|
|--------------------------|----------------------------|
|--7--7--7--7--7--7--7--7--|--7--7--7--7--7--10--10-----|
|--------------------------|-------------------------8--|
|--------------------------|----------------------------|
|--------------------------|----------------------------|


|--------------------------|-----------------------------|
|--------------------------|-------------------------10--|
|--------------------------|-----------------------------|
|--8--8--8--8--8--8--8--8--|--8--8--8--8--8--10--10------|
|--------------------------|-----------------------------|
|--------------------------|-----------------------------|

|----------------------------------|---------------------------------|
|--10--10--10--10--10--10--10--10--|--10--10--10--10--10--10--10--8--|
|----------------------------------|---------------------------------|
|----------------------------------|---------------------------------|
|----------------------------------|---------------------------------|
|----------------------------------|---------------------------------|

|--------------------------|--------------------------|
|--8--8--8--8--8--8--8--8--|--8--8--8-----------------|
|--------------------------|-----------9--9--9--9--9--|
|--------------------------|--------------------------|
|--------------------------|--------------------------|
|--------------------------|--------------------------|


Chorus
Guitar I/ Guitar II (Distorted)

E||---------------------------------------------------------------|
B||---------------------------------------------------------------|
G||-7-7-7-7-7-7-7-7-7-7-7-7-7-7-7--5-5-5-5-5-5-5-5-5-5-5-5-5-5-5--|
D||-7-7-7-7-7-7-7-7-7-7-7-7-7-7-7--5-5-5-5-5-5-5-5-5-5-5-5-5-5-5--|
A||-5-5-5-5-5-5-5-5-5-5-5-5-5-5-5--3-3-3-3-3-3-3-3-3-3-3-3-3-3-3--|
D||---------------------------------------------------------------|

      Hoppe hoppe Reiter                          eine Melodie im Wind


E||-----------------------------------------------------------------|
B||-----------------------------------------------------------------|
G||-3-3-3-3-3-3-3-3-3-3-3-3-3-3-5-5---------------------------------|
D||-3-3-3-3-3-3-3-3-3-3-3-3-3-3-5-5--3-3-3-3-3-3-3-3-7-7-7-7-7-7-7-7|
A||-1-1-1-1-1-1-1-1-1-1-1-1-1-1-3-3--3-3-3-3-3-3-3-3-7-7-7-7-7-7-7-7|
D||----------------------------------3-3-3-3-3-3-3-3-7-7-7-7-7-7-7-7|

  mein Herz schlägt nicht mehr weiter        und auf der Erde singt das Kind

E||---------------------------------------------------------------|
B||---------------------------------------------------------------|
G||-7-7-7-7-7-7-7-7-7-7-7-7-7-7-7--5-5-5-5-5-5-5-5-5-5-5-5-5-5-5--|
D||-7-7-7-7-7-7-7-7-7-7-7-7-7-7-7--5-5-5-5-5-5-5-5-5-5-5-5-5-5-5--|
A||-5-5-5-5-5-5-5-5-5-5-5-5-5-5-5--3-3-3-3-3-3-3-3-3-3-3-3-3-3-3--|
D||---------------------------------------------------------------|

      Hoppe hoppe Reiter                          und kein Engel steigt herab

E||-----------------------------------------------------------------|
B||-----------------------------------------------------------------|
G||-3-3-3-3-3-3-3-3-3-3-3-3-3-3-5-5---------------------------------|
D||-3-3-3-3-3-3-3-3-3-3-3-3-3-3-5-5--3-3-3-3-3-3-3-3-7-7-7-7-7-7-7-7|
A||-1-1-1-1-1-1-1-1-1-1-1-1-1-1-3-3--3-3-3-3-3-3-3-3-7-7-7-7-7-7-7-7|
D||----------------------------------3-3-3-3-3-3-3-3-7-7-7-7-7-7-7-7|

  mein Herz schlägt nicht mehr weiter        Nur der Regen weint am Grab

Form now on Guitar III plays the intro pieces with the other two Guitars.
The order for Guitar III is: Part A, Part B, Part A, Part C, Part D. (Sorry to be vague 
you can work out the timing for it :D)

E||---------------------------------------------------------------|
B||---------------------------------------------------------------|
G||-7-7-7-7-7-7-7-7-7-7-7-7-7-7-7--5-5-5-5-5-5-5-5-5-5-5-5-5-5-5--|
D||-7-7-7-7-7-7-7-7-7-7-7-7-7-7-7--5-5-5-5-5-5-5-5-5-5-5-5-5-5-5--|
A||-5-5-5-5-5-5-5-5-5-5-5-5-5-5-5--3-3-3-3-3-3-3-3-3-3-3-3-3-3-3--|
D||---------------------------------------------------------------|

      Hoppe hoppe Reiter                          eine Melodie im Wind
E||-----------------------------------------------------------------|
B||-----------------------------------------------------------------|
G||-3-3-3-3-3-3-3-3-3-3-3-3-3-3-5-5---------------------------------|
D||-3-3-3-3-3-3-3-3-3-3-3-3-3-3-5-5--3-3-3-3-3-3-3-3-7-7-7-7-7-7-7-7|
A||-1-1-1-1-1-1-1-1-1-1-1-1-1-1-3-3--3-3-3-3-3-3-3-3-7-7-7-7-7-7-7-7|
D||----------------------------------3-3-3-3-3-3-3-3-7-7-7-7-7-7-7-7|

  mein Herz schlägt nicht mehr weiter        und auf der Erde singt das Kind

E||---------------------------------------------------------------|
B||---------------------------------------------------------------|
G||-7-7-7-7-7-7-7-7-7-7-7-7-7-7-7--5-5-5-5-5-5-5-5-5-5-5-5-5-5-5--|
D||-7-7-7-7-7-7-7-7-7-7-7-7-7-7-7--5-5-5-5-5-5-5-5-5-5-5-5-5-5-5--|
A||-5-5-5-5-5-5-5-5-5-5-5-5-5-5-5--3-3-3-3-3-3-3-3-3-3-3-3-3-3-3--|
D||---------------------------------------------------------------|

      Hoppe hoppe Reiter                          und kein Engel steigt herab

E||-----------------------------------------------------------------|
B||-----------------------------------------------------------------|
G||-3-3-3-3-3-3-3-3-3-3-3-3-3-3-5-5---------------------------------|
D||-3-3-3-3-3-3-3-3-3-3-3-3-3-3-5-5--3-3-3-3-3-3-3-3-7-7-7-7-7-7-7-7|
A||-1-1-1-1-1-1-1-1-1-1-1-1-1-1-3-3--3-3-3-3-3-3-3-3-7-7-7-7-7-7-7-7|
D||----------------------------------3-3-3-3-3-3-3-3-7-7-7-7-7-7-7-7|

  mein Herz schlägt nicht mehr weiter        nur der Regen weint am Grab

E||---------------------------------------------------------------|
B||---------------------------------------------------------------|
G||-7-7-7-7-7-7-7-7-7-7-7-7-7-7-7--5-5-5-5-5-5-5-5-5-5-5-5-5-5-5--|
D||-7-7-7-7-7-7-7-7-7-7-7-7-7-7-7--5-5-5-5-5-5-5-5-5-5-5-5-5-5-5--|
A||-5-5-5-5-5-5-5-5-5-5-5-5-5-5-5--3-3-3-3-3-3-3-3-3-3-3-3-3-3-3--|
D||---------------------------------------------------------------|

      Hoppe hoppe Reiter                          eine Melodie im Wind
E||-----------------------------------------------------------------|
B||-----------------------------------------------------------------|
G||-3-3-3-3-3-3-3-3-3-3-3-3-3-3-5-5---------------------------------|
D||-3-3-3-3-3-3-3-3-3-3-3-3-3-3-5-5--3-3-3-3-3-3-3-3-7-7-7-7-7-7-7-7|
A||-1-1-1-1-1-1-1-1-1-1-1-1-1-1-3-3--3-3-3-3-3-3-3-3-7-7-7-7-7-7-7-7|
D||----------------------------------3-3-3-3-3-3-3-3-7-7-7-7-7-7-7-7|

  mein Herz schlägt nicht mehr weiter        und auf der Erde singt das Kind

E||---------------------------------------------------------------|
B||---------------------------------------------------------------|
G||-7-7-7-7-7-7-7-7-7-7-7-7-7-7-7--5-5-5-5-5-5-5-5-5-5-5-5-5-5-5--|
D||-7-7-7-7-7-7-7-7-7-7-7-7-7-7-7--5-5-5-5-5-5-5-5-5-5-5-5-5-5-5--|
A||-5-5-5-5-5-5-5-5-5-5-5-5-5-5-5--3-3-3-3-3-3-3-3-3-3-3-3-3-3-3--|
D||---------------------------------------------------------------|

      Hoppe hoppe Reiter                          und kein Engel steigt herab

E||-----------------------------------------------------------------|
B||-----------------------------------------------------------------|
G||-3-3-3-3-3-3-3-3-3-3-3-3-3-3-5-5---------------------------------|
D||-3-3-3-3-3-3-3-3-3-3-3-3-3-3-5-5--3-3-3-3-3-3-3-3-7-7-7-7-7-7-7-7|
A||-1-1-1-1-1-1-1-1-1-1-1-1-1-1-3-3--3-3-3-3-3-3-3-3-7-7-7-7-7-7-7-7|
D||----------------------------------3-3-3-3-3-3-3-3-7-7-7-7-7-7-7-7|

  mein Herz schlägt nicht mehr weiter        nur der Regen weint am Grab


And the song ends with Guitar III playing the Intro again twice

Hope this tab helps. I enjoyed making it, to some extent :P And I’m happy to be the 
person to tab the keyboard parts for this song! Please comment and rate, and feel free to 
any corrections that you can make

Lyrics: Translation taken from www.herzeleid.com/en/lyrics/mutter#spieluhr

Ein kleiner Mensch stirbt nur zum Schein
wollte ganz alleine sein
das kleine Herz stand still für Stunden
so hat man es für tot befunden
es wird verscharrt in nassem Sand
mit einer Spieluhr in der Hand
Der erste Schnee das Grab bedeckt
hat ganz sanft das Kind geweckt
in einer kalten Winternacht
ist das kleine Herz erwacht
Als der Frost ins Kind geflogen
hat es die Spieluhr aufgezogen
eine Melodie im Wind
und aus der Erde singt das Kind
Hoppe hoppe Reiter
und kein Engel steigt herab
mein Herz schlägt nicht mehr weiter
nur der Regen weint am Grab
hoppe hoppe Reiter
eine Melodie im Wind
mein Herz schlägt nicht mehr weiter
und aus der Erde singt das Kind
Der kalte Mond in voller Pracht
hört die Schreie in der Nacht
und kein Engel steigt herab
nur der Regen weint am Grab
Zwischen harten Eichendielen
wird es mit der Spieluhr spielen
eine Melodie im Wind
und aus der Erde singt das Kind
Hoppe hoppe Reiter
und kein Engel steigt herab
mein Herz schlägt nicht mehr weiter
nur der Regen weint am Grab
hoppe hoppe Reiter
eine Melodie im Wind
mein Herz schlägt nicht mehr weiter
und aus der Erde singt das Kind
Hoppe hoppe Reiter
mein Herz schlägt nicht mehr weiter
Am Totensonntag hörten sie
aus Gottes Acker diese Melodie
da haben sie es ausgebettet
das kleine Herz im Kind gerettet
Hoppe hoppe Reiter
eine Melodie im Wind
mein Herz schlägt nicht mehr weiter
und auf der Erde singt das Kind
hoppe hoppe Reiter
und kein Engel steigt herab
mein Herz schlägt nicht mehr weiter
nur der Regen weint am Grab

A small human only pretends to die
it wanted to be completely alone
the small heart stood still for hours
so they decided it was dead
it is being buried in wet sand *
with a music box in its hand
The first snow covers the grave
it woke the child very softly
in a cold winter night
the small heart is awakened
As the frost flew into the child
it wound up the music box
a melody in the wind
and the child sings from the ground
Up and down, rider **
and no angel climbs down
my heart does not beat anymore
only the rain cries on the grave
up and down, rider
a melody in the wind
my heart does not beat anymore
and the child sings from the ground
The cold moon, in full magnificence
it hears the cries in the night
and no angel climbs down
only the rain cries on the grave
Between hard oak boards
it will play with the music box
a melody in the wind
and the child sings from the ground
Up and down, rider
and no angel climbs down
my heart does not beat anymore
only the rain cries on the grave
up and down, rider
a melody in the wind
my heart does not beat anymore
and the child sings from the ground
Up and down, rider
my heart does not beat anymore
On Totensonntag they heard ***
this melody from god's field ****
then they unearthed it
they saved the small heart in the child
Up and down, rider
a melody in the wind
my heart does not beat anymore
and the child sings on the ground
up and down, rider
and no angel climbs down
my heart does not beat anymore
only the rain cries on the grave

            
            
Suggest correction
Creating personal tab
Creating personal tab
You can edit any tab online and save it as your Personal.

You can edit, replace or remove any tab part or add personal notes – all changes will be seen only by you.

Personal tabs can be accessed anytime from any device, even offline.
Learn more »
comments
print report bad tab
1 comment total.
0 reply
gaara1200 10 Apr 07, 2013 06:30 PM

an awesome tab for an awesome son. Thanks! XD \m/

guest
You may want to rate the tab now too:
select rating
Wanna post a correction for this tab? Suggest correction