Oops, an error
Loading. Please wait.

Spring tab

version 5
version 5

Whole song

Interactive

2,021 views 3 this week
18 commentsread comments
1 2 3 4 5
2 more votes to show rating
add to favorites
×
Save as Personal and add changes to this tab that will be seen only by you. Learn more ›
×
You can save this tab as Personal to edit and correct it or add notes. All changes will be seen only by you. Learn more »
launch autoscroll
font size
0
reset
how to read this tab
guitar tuner
edit
Autoscroll
slow
fast
+/-
esc
set tempo
stop
Song: Spring
Arist: Rammstein
Album: Rosenrot
Tuning: Drop C


INTRO:

Keys - 3x

The Correct Way:
(Continuously hold all notes)
D|-5-----------------------0~-------------------------------|
A|-x-------t8~-----6~--------------1-------4~------3~-------|
F|-2---------------7~--------------x-------5~------2~-------|
C|-----------------5~--------------1---------------0~-------|
G|----------------------------------------------------------|
C|----------------------------------------------------------|

Or just the chord way:
D|-5~------3~------1~------0~----------------------0~-------|
A|-3~------3~------3~------3~------1-------4~------3~-------|
F|-2~------2~------2~------2~------x-------5~------2~-------|
C|---------------------------------1---------------0~-------|
G|----------------------------------------------------------|
C|----------------------------------------------------------|

During the intro there is a swell towards the end of the high d string 17th fret.

Till Lindemann comes in the second time.

Right before he says “Und Shreie” the keys switch the final chord to:
D|--------------|
A|-3~-----------|
F|-3~-----------|
C|-0~-----------|
G|--------------|
C|--------------|

MAIN RIFF:

Both Guitars: (this is the main rhythm)
D|-----------------------------------------------------------------|
A|-----------------------------------------------------------------|
F|-----------------------------------------------------------------|
C|-0-------0-----0-0-------1-------0-------0-----0-0-------1-------|
G|-0-0-0-0-0-0-0-0-0-0-0-0-1-0-0-0-0-0-0-0-0-0-0-0-0-0-0-0-1-0-0-0-|
C|-0-0-0-0-0-0-0-0-0-0-0-0-1-0-0-0-0-0-0-0-0-0-0-0-0-0-0-0-1-0-0-0-|
 PM  - - -   - -     - - -   - - -   - - -   - -     - - -   - - -

Then:
Guitar I
D|-----------------------------------------------------------------|
A|-----------------------------------------------------------------|
F|-5-5-5-5-5-5-5-5-5-7-7-7-7-7-7-7---------------------------------|
C|-x-x-x-x-x-x-x-x-x-x-x-x-x-x-x-x-0-------0-----0-0-------1-------|
G|-3-3-3-3-3-3-3-3-3-5-5-5-5-5-5-5-0-0-0-0-0-0-0-0-0-0-0-0-1-0-0-0-|
C|---------------------------------0-0-0-0-0-0-0-0-0-0-0-0-1-0-0-0-|
 PM                                  - - -   - -     - - -   - - -


D|-----------------------------------------------------------------|
A|-----------------------------------------------------------------|
F|-5-5-5-5-5-5-5-5-4-4-4-4-4-4-4-4---------------------------------|
C|-x-x-x-x-x-x-x-x-x-x-x-x-x-x-x-x-0-------0-----0-0-------1-------|
G|-3-3-3-3-3-3-3-3-2-2-2-2-2-2-2-2-0-0-0-0-0-0-0-0-0-0-0-0-1-0-0-0-|
C|---------------------------------0-0-0-0-0-0-0-0-0-0-0-0-1-0-0-0-|
 PM                                  - - -   - -     - - -   - - -


Or if you have just one guitar:
D|-----------------------------------------------------------------|
A|-------------------3-3-3-3-3-3-3---------------------------------|
F|-5-5-5-5-5-5-5-5-4-4-4-4-4-4-4-4---------------------------------|
C|-x-x-x-x-x-x-x-x-x-0-0-0-0-0-0-0-0-------0-----0-0-------1-------|
G|-3-3-3-3-3-3-3-3-2-2-2-2-2-2-2-2-0-0-0-0-0-0-0-0-0-0-0-0-1-0-0-0-|
C|---------------------------------0-0-0-0-0-0-0-0-0-0-0-0-1-0-0-0-|
 PM                                  - - -   - -     - - -   - - -

VERSE:

Guitar I:
(Clean)
D|-----------------------------------------------------------------|
A|---1-----3~------------------------------------------------------|
F|-2---2~----------------------------------------------------------|
C|-----------------------------------------------------------------|
G|-----------------------------------------------------------------|
C|-----------------------------------------------------------------|

D|-----0~----------------------------------------------------------|
A|---1---1---3~----------------------------------------------------|
F|-2~--------------------------------------------------------------|
C|-----------------------------------------------------------------|
G|-----------------------------------------------------------------|
C|-----------------------------------------------------------------|

Guitar I
D|-----------------------------------------------------------------|
A|-----1---3~------------------------------------------------------|
F|---2---2~--------------------------------------------------------|
C|-0---------------------------------------------------------------|
G|-----------------------------------------------------------------|
C|-----------------------------------------------------------------|
 |
 |Strings
D|-----------------------------------------------------------------|
A|-----3---3~--------5~------------6~--------------8~--------------|
F|-----------------------------------------------------------------|
C|-----------------------------------------------------------------|
G|-----------------------------------------------------------------|
C|-----------------------------------------------------------------|

Guitar I
D|-----0~----------------------------------------------------------|
A|---1---1---3~----------------------------------------------------|
F|-2~--------------------------------------------------------------|
C|-----------------------------------------------------------------|
G|-----------------------------------------------------------------|
C|-----------------------------------------------------------------|

CHORUS: 2x

Both Guitars:
D|-----------------------------------------------------------------|
A|-----------------------------------------------------------------|
F|-----------------------------------------------------------------|
C|-0-------0-----0-0-------1-------0-------0-----0-0-------1-------|
G|-0-0-0-0-0-0-0-0-0-0-0-0-1-0-0-0-0-0-0-0-0-0-0-0-0-0-0-0-1-0-0-0-|
C|-0-0-0-0-0-0-0-0-0-0-0-0-1-0-0-0-0-0-0-0-0-0-0-0-0-0-0-0-1-0-0-0-|
 PM  - - -   - -     - - -   - - -   - - -   - -     - - -   - - -


D|-----------------------------------------------------------------|
A|-----------------------------------------------------------------|
F|-5-5-5-5-5-5-5-5-5-5-5-5-5-5-5-5---------------------------------|
C|-5-5-5-5-5-5-5-5-5-5-5-5-5-5-5-5-0-------0-----0-0-------1-------|
G|-3-3-3-3-3-3-3-3-3-3-3-3-3-3-3-3-0-0-0-0-0-0-0-0-0-0-0-0-1-0-0-0-|
C|---------------------------------0-0-0-0-0-0-0-0-0-0-0-0-1-0-0-0-|

Piano:
D|-----------------------------------------------------------------|
A|-----------------------------------------------------------------|
F|-7~--------------14----12----10--7~--------------14----12----10--|
C|-------------12------------------------------12------------------|
G|-----------------------------------------------------------------|
C|-----------------------------------------------------------------|

D|-----------------------------------------------------------------|
A|-----------------------------------------------------------------|
F|-9~--------------14----12----10--7~------------------------------|
C|-----------------------------------------------------------------|
G|-----------------------------------------------------------------|
C|-----------------------------------------------------------------|

Choir:
(One octave lower than piano)
D|-----------------------------------------------------------------|
A|-----------------------------------------------------------------|
F|-----------------------------------------------------------------|
C|-----------------7-----5-----3-------------------7-----5-----3---|
G|-5~----------5-------------------5~----------5-------------------|
C|-----------------------------------------------------------------|

D|-----------------------------------------------------------------|
A|-----------------------------------------------------------------|
F|-----------------------------------------------------------------|
C|-----------------7-----5-----3-----------------------------------|
G|-7~------------------------------5~------------------------------|
C|-----------------------------------------------------------------|


Post Chorus:
D|----------------------------------|
A|----------------------------------|
F|-7--(there’s and effect on the 7)-|
C|-x--------------------------------|
G|-5~-------------------------------|
C|----------------------------------|


VERSE 2:
This is just the rhythm guitar playing the main rhythm.

REPEAT CHORUS

But with
Choir: (REPEAT THIS THROUGH BRIDGE AND PRE-SOLO)
D|-----------------------------------------------------------------|
A|-----------------------------------------------------------------|
F|-7~----------7---14----12----10--7~----------7---14----12----10--|
C|-x-----------x---x-----x-----x---x-----------x---x-----x-----x---|
G|-5~----------5---12----10----8---5~----------5---12----10----8---|
C|-----------------------------------------------------------------|

D|-----------------------------------------------------------------|
A|-----------------------------------------------------------------|
F|-9~--------------14----12----10--7~------------------------------|
C|-x---------------x-----x-----x---x-------------------------------|
G|-7~--------------12----10----8---5~------------------------------|
C|-----------------------------------------------------------------|

BRIDGE:

Both Guitars:
D|-----------------------------------------------------------------|
A|-----------------------------------------------------------------|
F|-----------------------------------------------------------------|
C|-8-8-8-8-8-8-8-8-7-7-7-7-7-7-7-7-5-5-5-5-5-5-5-5-7-7-7-7-7-7-7-7-|
G|-8-8-8-8-8-8-8-8-7-7-7-7-7-7-7-7-5-5-5-5-5-5-5-5-7-7-7-7-7-7-7-7-|
C|-8-8-8-8-8-8-8-8-7-7-7-7-7-7-7-7-5-5-5-5-5-5-5-5-7-7-7-7-7-7-7-7-|

D|-----------------------------------------------------------------|
A|-----------------------------------------------------------------|
F|-5-5-5-5-5-5-5-5-5-5-5-5-5-5-5-5---------------------------------|
C|-5-5-5-5-5-5-5-5-5-5-5-5-5-5-5-5-0~------------------------------|
G|-3-3-3-3-3-3-3-3-3-3-3-3-3-3-3-3-0~------------------------------|
C|---------------------------------0~------------------------------|

PRE-SOLO:

There’s a swell that that is pre-bent at the high d string 15th fret bent to the 17th, 
is bends back down to the 15th and then slowly up to the 18th.

SOLO:

This is basically the Verse but with distortion for Guitar I with the Rhythm Guitar 
the main rhythm.


REPEAT CHORUS TWICE
First time with the choir at one note, second time with the full power chord with the 
set of notes as the root notes.
So pretty much:
D|-----------------------------------------------------------------|
A|-----------------------------------------------------------------|
F|-7~----------7---14----12----10--7~----------7---14----12----10--|
C|-7~----------7---14----12----10--7~----------7---14----12----10--|
G|-5~----------5---12----10----8---5~----------5---12----10----8---|
C|-----------------------------------------------------------------|

D|-----------------------------------------------------------------|
A|-----------------------------------------------------------------|
F|-9~--------------14----12----10--7~------------------------------|
C|-9~--------------14----12----10--7~------------------------------|
G|-7~--------------12----10----8---5~------------------------------|
C|-----------------------------------------------------------------|

OUTRO:

Both Guitars play the main rhythm  2x
With the choir-octave chords only. 2x

LYRICS:
Auf einer Brücke ziemlich hoch
Hält ein Mann die Arme auf
Da steht er nun und zögert noch
Die Menschen strömen gleich zuhauf
Auch ich lass mir das nicht entgehen
Das will ich aus der Nähe sehen
Ich stell mich in die erste Reihe
und schreie
Der Mann will von der Brücke steigen
Die Menschen fangen an zu hassen
Bilden einen dichten Reigen
Und wollen ihn nicht nach unten lassen
So steigt er noch mal nach oben
Und der Mob fängt an zu toben
Sie wollen seine Innereien
Und schreien
Spring
Erlöse mich
Spring
Enttäusch mich nicht
Spring für mich
Spring ins Licht
Spring
Jetzt fängt der Mann zu weinen an
Heimlich schiebt sich eine Wolke
fragt sich Was hab ich getan
vor die Sonne es wird kalt
Ich wollte nur zur Aussicht gehen
die Menschen laufen aus den Reihen
und in den Abendhimmel sehen
Und sie schreien
Spring
Sie schreien
Spring
Erlöse mich
Spring
Enttäusch mich nicht
Spring für mich
Spring ins Licht
Spring
Heimlich schiebt sich eine Wolke
vor die Sonne es wird kalt
Doch tausend Sonnen brennen nur für dich
Ich schleich mich heimlich auf die Brücke
Tret ihm von hinten in den Rücken
Erlöse ihn von dieser Schmach
und schrei ihm nach
Spring
Spring
Erlöse dich
Spring
Enttäusch mich nicht
Spring für mich
Spring
Enttäusch mich nicht

And that’s it.

            
            
Suggest correction
Creating personal tab
Creating personal tab
You can edit any tab online and save it as your Personal.

You can edit, replace or remove any tab part or add personal notes – all changes will be seen only by you.

Personal tabs can be accessed anytime from any device, even offline.
Learn more »
Give kudos to tab author, rate the tab!
1 2 3 4 5
comments
print report bad tab
18 comments total. Showing first comments.
0 reply
the_messenger66 1,322 May 24, 2013 01:32 PM

The only reason I'm doing this here is because I've submitted this four times, all rejected without a given reason. so **** it, here's Mein Herz Brennt.

Song: Mein Herz Brennt (Piano Version)
Artist: Rammstein (and Sven Helbig)
Album: Mein Herz Brennt Single
Tuning: Drop C

This was not easy to tab, given the limited range of the guitar so bear with me here on this one.

I had to tab it for two guitars, since it’s originally a piano.
The third line contains appropriate backing guitar chords.

Intro
|-19----19----19----19----20----20----20----20----19----19----19----19----19----19----19----19----|
|----20----20----20----20----22----22----22----22----20----20----20----20----19----19----19----19-|
|-------------------------------------------------------------------------------------------------|
|-------------------------------------------------------------------------------------------------|
|-------------------------------------------------------------------------------------------------|
|-------------------------------------------------------------------------------------------------|
|
|-------------------------------------------------------------------------------------------------|
|-12~---------------------13----------12----10----------------------------------------12-10-8--10-|
|-------------------------------------------------12~---------------------11~---------------------|
|-------------------------------------------------------------------------------------------------|
|-------------------------------------------------------------------------------------------------|
|-------------------------------------------------------------------------------------------------|
|
|-0~----------------------0~----------------------0~----------------------2~----------------------|
|-0~----------------------1~----------------------0~----------------------3~----------------------|
|-0~----------------------0~----------------------0~----------------------4~----------------------|
|-2~----------------------2~----------------------2~----------------------4~----------------------|
|-2~----------------------3~----------------------2~----------------------2~----------------------|
|-------------------------------------------------------------------------------------------------|

Pre-Chorus
|-19----19----19----19----20----20----20----20----19----19----19----19----19----19----19----19----|
|----20----20----20----20----22----22----22----22----20----20----20----20----19----19----19----19-|
|-------------------------------------------------------------------------------------------------|
|-------------------------------------------------------------------------------------------------|
|-------------------------------------------------------------------------------------------------|
|-------------------------------------------------------------------------------------------------|
|
|-------------------------------------------------10~---------------------------------------------|
|-12~---------------------13~---------------------------------------------------------10----------|
|-------------------------------------------------------------12----------11----------------------|
|-------------------------------------------------------------------------------------------------|
|-------------------------------------------------------------------------------------------------|
|-------------------------------------------------------------------------------------------------|
|
|-0~----------------------0~----------------------0~----------------------2~----------------------|
|-0~----------------------1~----------------------0~----------------------3~----------------------|
|-0~----------------------0~----------------------0~----------------------4~----------------------|
|-2~----------------------2~----------------------2~----------------------4~----------------------|
|-2~----------------------3~----------------------2~----------------------2~----------------------|
|-------------------------------------------------------------------------------------------------|

|-15----15----15----15----17----17----17----17----15----15----15----15----14----14----14----14----|
|----17----17----17----17----19----19----19----19-17-17-17-17-17-17-17-17-17----17----17----17----|
|----------------------------------------------------------------------------17----17----17----17-|
|-------------------------------------------------------------------------------------------------|
|-------------------------------------------------------------------------------------------------|
|-------------------------------------------------------------------------------------------------|
|
|-------------------------------------------------------------------------------------------------|
|-12~---------------------13~----------12----10---------------------------------------------------|
|-------------------------------------------------12~---------------------11~---------------------|
|-9~--------

0 reply
the_messenger66 1,322 May 24, 2013 01:34 PM

The only reason I'm doing this is because I worked hard on it, and got it rejected four times without a given reason, so **** it here's Mein Herz Brennt:

Song: Mein Herz Brennt (Piano Version)
Artist: Rammstein (and Sven Helbig)
Album: Mein Herz Brennt Single
Tuning: Drop C

This was not easy to tab, given the limited range of the guitar so bear with me here on this one.

I had to tab it for two guitars, since it’s originally a piano.
The third line contains appropriate backing guitar chords.

Intro
|-19----19----19----19----20----20----20----20----19----19----19----19----19----19----19----19----|
|----20----20----20----20----22----22----22----22----20----20----20----20----19----19----19----19-|
|-------------------------------------------------------------------------------------------------|
|-------------------------------------------------------------------------------------------------|
|-------------------------------------------------------------------------------------------------|
|-------------------------------------------------------------------------------------------------|
|
|-------------------------------------------------------------------------------------------------|
|-12~---------------------13----------12----10----------------------------------------12-10-8--10-|
|-------------------------------------------------12~---------------------11~---------------------|
|-------------------------------------------------------------------------------------------------|
|-------------------------------------------------------------------------------------------------|
|-------------------------------------------------------------------------------------------------|
|
|-0~----------------------0~----------------------0~----------------------2~----------------------|
|-0~----------------------1~----------------------0~----------------------3~----------------------|
|-0~----------------------0~----------------------0~----------------------4~----------------------|
|-2~----------------------2~----------------------2~----------------------4~----------------------|
|-2~----------------------3~----------------------2~----------------------2~----------------------|
|-------------------------------------------------------------------------------------------------|

Pre-Chorus
|-19----19----19----19----20----20----20----20----19----19----19----19----19----19----19----19----|
|----20----20----20----20----22----22----22----22----20----20----20----20----19----19----19----19-|
|-------------------------------------------------------------------------------------------------|
|-------------------------------------------------------------------------------------------------|
|-------------------------------------------------------------------------------------------------|
|-------------------------------------------------------------------------------------------------|
|
|-------------------------------------------------10~---------------------------------------------|
|-12~---------------------13~---------------------------------------------------------10----------|
|-------------------------------------------------------------12----------11----------------------|
|-------------------------------------------------------------------------------------------------|
|-------------------------------------------------------------------------------------------------|
|-------------------------------------------------------------------------------------------------|
|
|-0~----------------------0~----------------------0~----------------------2~----------------------|
|-0~----------------------1~----------------------0~----------------------3~----------------------|
|-0~----------------------0~----------------------0~----------------------4~----------------------|
|-2~----------------------2~----------------------2~----------------------4~----------------------|
|-2~----------------------3~----------------------2~----------------------2~----------------------|
|-------------------------------------------------------------------------------------------------|

|-15----15----15----15----17----17----17----17----15----15----15----15----14----14----14----14----|
|----17----17----17----17----19----19----19----19-17-17-17-17-17-17-17-17-17----17----17----17----|
|----------------------------------------------------------------------------17----17----17----17-|
|-------------------------------------------------------------------------------------------------|
|-------------------------------------------------------------------------------------------------|
|-------------------------------------------------------------------------------------------------|
|
|-------------------------------------------------------------------------------------------------|
|-12~---------------------13~----------12----10---------------------------------------------------|
|-------------------------------------------------12~---------------------11~---------------------|
|-9~------

0 reply
the_messenger66 1,322 May 24, 2013 01:36 PM

ok, so it's a big tab.
|-15----15----15----15----17----17----17----17----15----15----15----15----14----14----14----14----|
|----17----17----17----17----19----19----19----19-17-17-17-17-17-17-17-17-17----17----17----17----|
|----------------------------------------------------------------------------17----17----17----17-|
|-------------------------------------------------------------------------------------------------|
|-------------------------------------------------------------------------------------------------|
|-------------------------------------------------------------------------------------------------|
|
|-------------------------------------------------------------------------------------------------|
|-12~---------------------13~----------12----10---------------------------------------------------|
|-------------------------------------------------12~---------------------11~---------------------|
|-9~----------------------10~---------------------9~----------------------------------------------|
|----------------------------------------------------------------------------------12~------------|
|-------------------------------------------------------------------------------------------------|
|
|-0~----------------------0~----------------------0~----------------------2~----------------------|
|-0~----------------------1~----------------------0~----------------------3~----------------------|
|-0~----------------------0~----------------------0~----------------------4~----------------------|
|-2~----------------------2~----------------------2~----------------------4~----------------------|
|-2~----------------------3~----------------------2~----------------------2~----------------------|
|-------------------------------------------------------------------------------------------------|

|-15----15----15----15----17----17----17----17----15----15----15----15----14----14----14----14----|
|----17----17----17----17----19----19----19----19----17----17----17----17----15----15----15----15-|
|-16----16----16----16----17----17----17----17----16----16----16----16----14----14----14----14----|
|-------------------------------------------------------------------------------------------------|
|-------------------------------------------------------------------------------------------------|
|-------------------------------------------------------------------------------------------------|
|
|-------------------------------------------------------------------------------------------------|
|-------------------------------------------------------------------------------------------------|
|-------------------------------------------------------------------------------------------------|
|-------------------------------------------------------------------------------------------------|
|-------------------------------------------------------------------------------------------------|
|-9~----------------------10~---------9-----7-----5~----------------7--5--4~----------2-----4-----|
|
|-0~----------------------0~----------------------0~----------------------2~----------------------|
|-0~----------------------1~----------------------0~----------------------3~----------------------|
|-0~----------------------0~----------------------0~----------------------4~----------------------|
|-2~----------------------2~----------------------2~----------------------4~----------------------|
|-2~----------------------3~----------------------2~----------------------2~----------------------|
|-------------------------------------------------------------------------------------------------|

guest
You may want to rate the tab now too:
select rating
Wanna post a correction for this tab? Suggest correction