Oops, an error
Loading. Please wait.

Tier bass

version 3
version 3

Whole song

Interactive

614 views 1 this week
no commentswrite comment
1 2 3 4 5
2 more votes to show rating
add to favorites
×
Save as Personal and add changes to this tab that will be seen only by you. Learn more ›
×
You can save this tab as Personal to edit and correct it or add notes. All changes will be seen only by you. Learn more »
launch autoscroll
font size
0
reset
guitar tuner
edit
Autoscroll
slow
fast
+/-
esc
set tempo
stop
TS314

Rammstein: Tier

I'm not entirely sure if this is perfectly correct, but i like playing it this way so i 
figured i'd put it on here. It's a little more fun than the bass tabs that are currently 
on the site for this song.

Intro is acoustic, no bass that i can hear. Come in once the guitars have played through 
the main riff twice. Just listen to the drums, they'll lead you in.

G|-----------------------------------------------------------------|
D|-----------------------------------------------------------------|
A|3h5-5-5-3h5-5-5-6-0-5-0-3h5-5-5-3h5-5-5-3h5-5-5-6-0-8-0-6\5-5-5--|
E|-----------------------------------------------------------------| x2

G|-----------------------|
D|-----------------------|
A|-----------------------|
E|3h5--0-3h5--0-6-5-3h5--| x4

G|-----------------------------------------------------------------|
D|-----------------------------------------------------------------|
A|3h5-5-5-3h5-5-5-6-0-5-0-3h5-5-5-3h5-5-5-3h5-5-5-6-0-8-0-6\5-5-5--|
E|-----------------------------------------------------------------| x2

G|-----------------------|
D|-----------------------|
A|-----------------------|
E|3h5--0-3h5--0-6-5-3h5--| x4

G|-----------------------------------------------------------------|
D|-----------------------------------------------------------------|
A|3h5-5-5-3h5-5-5-6-0-5-0-3h5-5-5-3h5-5-5-3h5-5-5-6-0-8-0-6\5-5-5--|
E|-----------------------------------------------------------------| x4

G|-----------------------------------------------------------------|
D|-----------------------------------------------------------------|
A|-----------------------------------------------------------------|
E|3-3-3-3-3-3-3-3-3/6-6-6-6-6-6-6-6/8-8-8-8-8-8-8-0-0-0-0-2-2-2-2--|

G|-----------------------------------|
D|-----------------------------------|
A|-----------------------------------|
E|3-3-3-3-3-3-3-3-3/6-6-6-6-6-6-6-8--|

G|-----------------------------------------------------------------|
D|-----------------------------------------------------------------|
A|3h5-5-5-3h5-5-5-6-0-5-0-3h5-5-5-3h5-5-5-3h5-5-5-6-0-8-0-6\5-5-5--|
E|-----------------------------------------------------------------| x2

G|-----------------------|
D|-----------------------|
A|-----------------------|
E|3h5--0-3h5--0-6-5-3h5--| x8

G|-----------------------------------------------------------------|
D|-----------------------------------------------------------------|
A|3h5-5-5-3h5-5-5-6-0-5-0-3h5-5-5-3h5-5-5-3h5-5-5-6-0-8-0-6\5-5-5--|
E|-----------------------------------------------------------------| x4

G|-----------------------------------------------------------------|
D|-----------------------------------------------------------------|
A|-----------------------------------------------------------------|
E|3-3-3-3-3-3-3-3-3/6-6-6-6-6-6-6-6/8-8-8-8-8-8-8-0-0-0-0-2-2-2-2--| x3

G|-----------------------------------------------------------------|
D|-----------------------------------------------------------------|
A|-----------------------------------------------------------------|
E|3-3-3-3-3-3-3-3-3/6-6-6-6-6-6-6-6/8-8-8-8-8-8-8-0-0-0-0-0-0-0-0--|

Now a short rest while the keyboard has a little fun on its own. If your fingers are 
feeling like they're gonna fall off just grab some duct tape and put them back on cause 
you're almost done.

G|-----------------------------------------------------------------|
D|-----------------------------------------------------------------|
A|3h5-5-5-3h5-5-5-6-0-5-0-3h5-5-5-3h5-5-5-3h5-5-5-6-0-8-0-6\5-5-5--|
E|-----------------------------------------------------------------| x8

Outro is just like the intro, no bass.

            
            
Suggest correction
Creating personal tab
Creating personal tab
You can edit any tab online and save it as your Personal.

You can edit, replace or remove any tab part or add personal notes – all changes will be seen only by you.

Personal tabs can be accessed anytime from any device, even offline.
Learn more »
Give kudos to tab author, rate the tab!
1 2 3 4 5
comments
print report bad tab
guest
You may want to rate the tab now too:
select rating
Wanna post a correction for this tab? Suggest correction