Oops, an error
Loading. Please wait.

Wo Bist Du tab

version 5
version 5

Whole song

Interactive

2,009 views 1 this week
no commentswrite comment
1 2 3 4 5
1 last vote to show rating
add to favorites
×
Save as Personal and add changes to this tab that will be seen only by you. Learn more ›
×
You can save this tab as Personal to edit and correct it or add notes. All changes will be seen only by you. Learn more »
launch autoscroll
font size
0
reset
how to read this tab
guitar tuner
edit
Autoscroll
slow
fast
+/-
esc
set tempo
stop
Wo Bist Du
Rammstein
Rosenrot

There are a lot of good tabs out there for this song, but they all seem to
forget a few details. Also, since the guitarist tends to get bored waiting
for his part to come in, I’ve tabbed out all the keyboard sections I could
for guitar.

Tuning: CGCFAD

Flute (keyboard) intro:

|--------------12v~~~~~~~~~~~~~------------------13v~~~~~~~~~~~~~-|
|----------13--------------------------------13-------------------|
|------14--------------------------------14-----------------------|
|-----------------------------------------------------------------|
|-----------------------------------------------------------------|
|-----------------------------------------------------------------|


|-15v~~~~~~~~-13v~~~~~~~~-12v~~~~-17v~~~~~~~~-15v~~~~~~~~-13v~~~~-|
|-----------------------------------------------------------------|
|-----------------------------------------------------------------|
|-----------------------------------------------------------------|
|-----------------------------------------------------------------|
|-----------------------------------------------------------------|

Then:

| Keyboard
|--------------12v~~~~~~~~~~~~~------------------13v~~~~~~~~~~~~~-|
|----------13--------------------------------13-------------------|
|------14--------------------------------14-----------------------|
|-----------------------------------------------------------------|
|-----------------------------------------------------------------|
|-----------------------------------------------------------------|
| Guitar
|-----------------------------------------------------------------|
|-----------------------------------------------------------------|
|-----------------------------------------------------------------|
|-7-7-7-7-7-7-7-7-7-7-7-7-7-7-7-7-3-3-3-3-3-3-3-3-3-3-3-3-3-3-3-3-|
|-7-7-7-7-7-7-7-7-7-7-7-7-7-7-7-7-3-3-3-3-3-3-3-3-3-3-3-3-3-3-3-3-|
|-7-7-7-7-7-7-7-7-7-7-7-7-7-7-7-7-3-3-3-3-3-3-3-3-3-3-3-3-3-3-3-3-|

|-15v~~~~~~~~-13v~~~~~~~~-12v~~~~-17v~~~~~~~~-15v~~~~~~~~-13v~~~~-|
|-----------------------------------------------------------------|
|-----------------------------------------------------------------|
|-----------------------------------------------------------------|
|-----------------------------------------------------------------|
|-----------------------------------------------------------------|
|
|------------------------------------------------------------------|
|------------------------------------------------------------------|
|------------------------------------------------------------------|
|-10101010101010101010101010101010-0-0-0-0-0-0-0-0-0-0-0-0-0-0-0-0-|
|-10101010101010101010101010101010-0-0-0-0-0-0-0-0-0-0-0-0-0-0-0-0-|
|-10101010101010101010101010101010-0-0-0-0-0-0-0-0-0-0-0-0-0-0-0-0-|
  (These are 10's, not 1's and 0's)

|--------------12v~~~~~~~~~~~~~------------------13v~~~~~~~~~~~~~-|
|----------13--------------------------------13-------------------|
|------14--------------------------------14-----------------------|
|-----------------------------------------------------------------|
|-----------------------------------------------------------------|
|-----------------------------------------------------------------|
|
|-----------------------------------------------------------------|
|-----------------------------------------------------------------|
|-----------------------------------------------------------------|
|-7-7-7-7-7-7-7-7-7-7-7-7-7-7-7-7-3-3-3-3-3-3-3-3-3-3-3-3-3-3-3-3-|
|-7-7-7-7-7-7-7-7-7-7-7-7-7-7-7-7-3-3-3-3-3-3-3-3-3-3-3-3-3-3-3-3-|
|-7-7-7-7-7-7-7-7-7-7-7-7-7-7-7-7-3-3-3-3-3-3-3-3-3-3-3-3-3-3-3-3-|

|-15v~~~~~~~~-13v~~~~~~~~-12v~~~~-17v~~~~~~~~-15v~~~~~~~~-13v~~~~-|
|-----------------------------------------------------------------|
|-----------------------------------------------------------------|
|-----------------------------------------------------------------|
|-----------------------------------------------------------------|
|-----------------------------------------------------------------|
|
|-----------------------------------------------------------------|
|-----------------------------------------------------------------|
|-----------------------------------------------------------------|
|-1010101010101010101010101010101012121212121212121212121215--14--|
|-1010101010101010101010101010101012121212121212121212121215--14--|
|-1010101010101010101010101010101012121212121212121212121215--14--|
  (10, 12, 15, 14)

Verse (Keyboard): You can hold the notes or tremolo them - do what sounds
best to you.

|-7~~~~~~~~~~~~~~~~~~~~~~~~~~~~~~-3~~~~~~~~~~~~~~~~~~~~~~~~~~~~~~~-|
|------------------------------------------------------------------|
|------------------------------------------------------------------|
|------------------------------------------------------------------|
|------------------------------------------------------------------|
|------------------------------------------------------------------|
Ich liebe dich…                   Ich liebe dich nicht…

|-2~~~~~~~~~~~~~~~~~~~~~~~~~~~~~~-0~~~~~~~~~~~~~~~~~~~~~~~~~~~~~~~-|
|------------------------------------------------------------------|
|------------------------------------------------------------------|
|------------------------------------------------------------------|
|------------------------------------------------------------------|
|------------------------------------------------------------------|

|-7~~~~~~~~~~~~~~~~~~~~~~~~~~~~~~-3~~~~~~~~~~~~~~~~~~~~~~~~~~~~~~~-|
|------------------------------------------------------------------|
|------------------------------------------------------------------|
|------------------------------------------------------------------|
|------------------------------------------------------------------|
|------------------------------------------------------------------|

|-10~~~~~~~~~~~~~~~~~~~~~~~~~~~~~-0~~~~~~~~~~~~~~~~~~~~~~~~~~~~~~~-|
|------------------------------------------------------------------|
|------------------------------------------------------------------|
|------------------------------------------------------------------|
|------------------------------------------------------------------|
|------------------------------------------------------------------|

|------------------------------------------------------------------|
|------------------------------------------------------------------|
|------------------------------------------------------------------|
|------------------------------------------------------------------|
|------------------------------------------------------------------|
|-7~~~~~~~~~~~~~~~~~~~~~~~~~~~~~~-3~~~~~~~~~~~~~~~~~~~~~~~~~~~~~~~-|
Die schönen Mädchen…

|------------------------------------------------------------------|
|------------------------------------------------------------------|
|------------------------------------------------------------------|
|------------------------------------------------------------------|
|------------------------------------------------------------------|
|-10~~~~~~~~~~~~~~~~~~~~~~~~~~~~~-0~~~~~~~~~~~~~~~~~~~~~~~~~~~~~~~-|

Play the last two bars above twice. While keyboard plays the last 0, guitar
comes in with this:

|------------------------------------------------------------------|
|------------------------------------------------------------------|
|------------------------------------------------------------------|
|----------------------------------------------------------15--14--|
|----------------------------------------------------------15--14--|
|----------------------------------------------------------15--14--|

Then guitar plays chorus. Keyboard, as tabbed for guitar, plays the exact
same frets as the guitar during the chorus, but only on the high C (fourth)
string instead of a power chord.

Build up to solo (keyboard):

|-2~~~~~~~~~~~~~~-3~~~~~~~~~~~~~~-4~~~~~~~~~~~~~~-5~~~~~~~~~~~~~~~-|
|------------------------------------------------------------------|
|------------------------------------------------------------------|
|------------------------------------------------------------------|
|------------------------------------------------------------------|
|------------------------------------------------------------------|

Solo (Keyboard):

|----------------------------------------------------------13-----|
|----13--12--10v~~~~~~~~~~~~~~~--10--13--12--10v~~~~~~~~~~~-------|
|------------------------------10---------------------------------|
|-----------------------------------------------------------------|
|-----------------------------------------------------------------|
|-----------------------------------------------------------------|

|-13---------------------12----13--12--12v~~~~~~~~~~~~~~~~~~~~~~~-|
|-----13-12-10v~~~~~~~~~------------------------------------------|
|-----------------------------------------------------------------|
|-----------------------------------------------------------------|
|-----------------------------------------------------------------|
|-----------------------------------------------------------------|

Guitar plays chorus behind the solo. Then guitar plays the chorus one more
time, with no keyboard, followed by a slight variation, during which the
keyboard plays the intro again:

|-----------------------------------------------------------------|
|-----------------------------------------------------------------|
|-----------------------------------------------------------------|
|-7-7-7-7-7-7-7-7-7-7-7-7-7-7-7-7-3-3-3-3-3-3-3-3-3-3-3-3-3-3-3-3-|
|-7-7-7-7-7-7-7-7-7-7-7-7-7-7-7-7-3-3-3-3-3-3-3-3-3-3-3-3-3-3-3-3-|
|-7-7-7-7-7-7-7-7-7-7-7-7-7-7-7-7-3-3-3-3-3-3-3-3-3-3-3-3-3-3-3-3-|

|------------------------------------------------------------------|
|------------------------------------------------------------------|
|------------------------------------------------------------------|
|-1010101010101010101010101010101012121212121212121212121212121212-|
|-1010101010101010101010101010101012121212121212121212121212121212-|
|-1010101010101010101010101010101012121212121212121212121212121212-|

|-----------------------------------------------------------------|
|-----------------------------------------------------------------|
|-----------------------------------------------------------------|
|-7-7-7-7-7-7-7-7-7-7-7-7-7-7-7-7-3-3-3-3-3-3-3-3-3-3-3-3-3-3-3-3-|
|-7-7-7-7-7-7-7-7-7-7-7-7-7-7-7-7-3-3-3-3-3-3-3-3-3-3-3-3-3-3-3-3-|
|-7-7-7-7-7-7-7-7-7-7-7-7-7-7-7-7-3-3-3-3-3-3-3-3-3-3-3-3-3-3-3-3-|

|-----------------------------------------------------------------|
|-----------------------------------------------------------------|
|-----------------------------------------------------------------|
|-1010101010101010101010101010101012121212121212121212121215--14--|
|-1010101010101010101010101010101012121212121212121212121215--14--|
|-1010101010101010101010101010101012121212121212121212121215--14--|

And that’s everything!

            
            
Suggest correction
Creating personal tab
Creating personal tab
You can edit any tab online and save it as your Personal.

You can edit, replace or remove any tab part or add personal notes – all changes will be seen only by you.

Personal tabs can be accessed anytime from any device, even offline.
Learn more »
Give kudos to tab author, rate the tab!
1 2 3 4 5
comments
print report bad tab
guest
You may want to rate the tab now too:
select rating
Wanna post a correction for this tab? Suggest correction