Oops, an error
Loading. Please wait.

Zerstoren bass

version 3
version 3

Whole song

Interactive

618 views 3 this week
no commentswrite comment
1 2 3 4 5
2 more votes to show rating
add to favorites
×
Save as Personal and add changes to this tab that will be seen only by you. Learn more ›
×
You can save this tab as Personal to edit and correct it or add notes. All changes will be seen only by you. Learn more »
launch autoscroll
font size
0
reset
guitar tuner
edit
Autoscroll
slow
fast
+/-
esc
set tempo
stop
TS314


Main Riff. You'll be playing this for almost the whole song.
F|--------------------------------|
C|--------------------------------|
G|--------------------------------|
C|4-1-1-0-1-1-0-1-0-1-1-1-0-0-1-1-|


First verse. It's played differently than the rest.
F|--------------------------------|
C|--------------------------------|
G|--------------------------------|
C|4-1-0-0-1-1-1-1-1-1-1-1-1-1-1-1-|


Chorus
F|--------------------------------|
C|--------------------------------|
G|--------------------------------|
C|4-1-1-0-1-1-0-1-0-1-1-1-0-0-1-1-| x2


F|----------------------------------------------------------------|
C|----------------------------------------------------------------|
G|----------------------------------------------------------------|
C|2-2-2-2-2-2-2-2-2-2-2-2-2-2-2-2-4-1-1-0-1-1-0-1-0-1-1-1-0-0-1-1-|


F|--------------------------------|
C|--------------------------------|
G|--------------------------------|
C|4-1-1-0-1-1-0-1-0-1-1-1-0-0-1-1-| x2


F|----------------------------------------------------------------|
C|----------------------------------------------------------------|
G|----------------------------------------------------------------|
C|2-2-2-2-2-2-2-2-2-2-2-2-2-2-2-2-6-6-6-6-6-6-6-6-6-6-6-6-6-6-6-6-|


After the solo
F|-------------------------------|
C|-------------------------------|
G|-------------------------------|
C|11--9--14--9--11--6----6-6-6-6-|


After that just keep repeating the main riff until the part where the guitars start 
squealing up and down their fretboards. I don't hear any bass during that part.

            
            
Suggest correction
Creating personal tab
Creating personal tab
You can edit any tab online and save it as your Personal.

You can edit, replace or remove any tab part or add personal notes – all changes will be seen only by you.

Personal tabs can be accessed anytime from any device, even offline.
Learn more »
Give kudos to tab author, rate the tab!
1 2 3 4 5
comments
print report bad tab
guest
You may want to rate the tab now too:
select rating
Wanna post a correction for this tab? Suggest correction