Oops, an error
Loading. Please wait.

Tragos Amargos bass

826 views 6 this week
no commentswrite comment
1 2 3 4 5
3 more votes to show rating
add to favorites
×
Save as Personal and add changes to this tab that will be seen only by you. Learn more ›
×
You can save this tab as Personal to edit and correct it or add notes. All changes will be seen only by you. Learn more »
launch autoscroll
font size
0
reset
guitar tuner
edit
Autoscroll
slow
fast
+/-
esc
set tempo
stop
aqui les va el intro de la cancion tragos amargos ojala les guste
ya que es mi primer trabajao a oido dedikado para corina
free way de ensenada presente en la cuerda

-----------------------------------
--5-------5-4-3-5--------55-------------
3---3---5---------3---5-----------------
------3-------------3------------------

---------2-------------5------------------
-----------532-----2-5-----------------------
-----2-3-------5-3-------2-------------------
-3-5-----------------------3---------------

ojala les guste nos vemos pronto

            
            
Suggest correction
Creating personal tab
Creating personal tab
You can edit any tab online and save it as your Personal.

You can edit, replace or remove any tab part or add personal notes – all changes will be seen only by you.

Personal tabs can be accessed anytime from any device, even offline.
Learn more »
Give kudos to tab author, rate the tab!
1 2 3 4 5
comments
print report bad tab
guest
Wanna post a correction for this tab? Suggest correction