Oops, an error
Loading. Please wait.

I Say Fever intro tab

version 1
version 1

Intro

Whole song

4,817 views 1 this week
1 commentread comment
1 2 3 4 5
3 more votes to show rating
add to favorites
×
Save as Personal and add changes to this tab that will be seen only by you. Learn more ›
×
You can save this tab as Personal to edit and correct it or add notes. All changes will be seen only by you. Learn more »
launch autoscroll
font size
0
reset
how to read this tab
guitar tuner
edit
Autoscroll
slow
fast
+/-
esc
set tempo
stop
Author
www.ramonafalls.com
http://www.barsuk.com/shop/ramonafalls

I Say Fever
Ramona Falls

Standard Tuning

Theres only guitar in the beginning of this song, and this is how I play it...

b-bend
p-pull off

Intro:
e-------------------------------------------------------------------|
B-------------------------------------------------------------------|
G-------------------------------------------------------------------|
D----------------------------------------------------------0--0--0--|
A----------------------------------------------------------0--0--0--|
E--0--0--0-3bp---0--0--0-3bp---0--0--0-3bp---0--0--0-3bp------------|

This played sloppily and let ring:
--12\\\\\\0------0----12\\\\\\0----------------------|
--12\\\\\\0--0---8----12\\\\\\0--0---12--------------|
--12\\\\\\0--0---9----12\\\\\\0--0---12--------------| X2 let ring even more
--12\\\\\\2--0---9----12\\\\\\2--0---12--------------|    on second time.
--12\\\\\\2-----------12\\\\\\2----------------------|
----------0-------------------0----------------------|

When you play this sloppily, the unintentional extra notes will add distortion and it 
sound like how he plays it in the song.

            
            
Suggest correction
Creating personal tab
Creating personal tab
You can edit any tab online and save it as your Personal.

You can edit, replace or remove any tab part or add personal notes – all changes will be seen only by you.

Personal tabs can be accessed anytime from any device, even offline.
Learn more »
Give kudos to tab author, rate the tab!
1 2 3 4 5
comments
print report bad tab
1 comment total.
0 reply
gr33nboard 266 Apr 01, 2010 07:08 PM

also, if you want more sound, you can also play

------------------|
------------------|
------------------|
--2---2---2-------|
--2---2---2-------|
--0---0---3bp-----|

guest
You may want to rate the tab now too:
select rating
Wanna post a correction for this tab? Suggest correction