Oops, an error
Loading. Please wait.
We have an official Do You Wanna Dance tab made by UG professional guitarists. Check out the tab »
×
by Ramones
12,966 views 18 this week
1 commentread comment
1 2 3 4 5
x 6
add to favorites
×
Save as Personal and add changes to this tab that will be seen only by you. Learn more ›
×
You can save this tab as Personal to edit and correct it or add notes. All changes will be seen only by you. Learn more »
launch autoscroll
font size
0
reset
how to read this tab
guitar tuner
edit
Autoscroll
slow
fast
+/-
esc
set tempo
stop
Author
This is a kick ass Ramones song
Tabbed by: J.A.R. (Jacob Lambros)
E-mail: jason_andrew_relva@msn.com

Verse/Chorus                     play twice
e|----------------5--5-5-5-5-5-5-----------------------------------------------|
B|----------------7--7-7-7-7-7-7-----------------------------------------------|
G|----------------7--7-7-7-7-7-7-----------------------------------------------|
D|-7--7-7-7-7-7-7-7--7-7-7-7-7-7-----------------------------------------------|
A|-7--7-7-7-7-7-7-5--5-5-5-5-5-5-----------------------------------------------|
E|-5--5-5-5-5-5-5--------------------------------------------------------------|

   1  2 & 3 & 4 & 1  2 & 3 & 4 &

e|---------------------------------------------------------------------------|
B|---------------------------------------------------------------------------|
G|---------------------------------------------------------------------------|
D|-7--7-7-7-7-7-7-2--2-2-2-2-2-2-7--7-7-7-7-7-7-7-7-7-7-7-7-7-7--------------|
A|-7--7-7-7-7-7-7-2--2-2-2-2-2-2-7--7-7-7-7-7-7-7-7-7-7-7-7-7-7--------------|
E|-5--5-5-5-5-5-5-0--0-0-0-0-0-0-5--5-5-5-5-5-5-5-5-5-5-5-5-5-5--------------|
   1  2 & 3 & 4 & 1  2 & 3 & 4 & 1  2 & 3 & 4 & 1 & 2 & 3 & 4 &
That's pretty much it, just reapeat this a bunch of times and then at some parts play 
bottom part with the volume turned down a little, listen and you'll figure it out

                     play 4x     End on
e|------------------------------------------------------------------------------|
B|------------------------------------------------------------------------------|
G|------------------------------------------------------------------------------|
D|-2-2-2-2-2-2-2-2---------------------------7----------------------------------|
A|-2-2-2-2-2-2-2-2---------------------------7----------------------------------|
E|-0-0-0-0-0-0-0-0---------------------------5----------------------------------|
   1 & 2 & 3 & 4 &

            
            
Suggest correction
Creating personal tab
Creating personal tab
You can edit any tab online and save it as your Personal.

You can edit, replace or remove any tab part or add personal notes – all changes will be seen only by you.

Personal tabs can be accessed anytime from any device, even offline.
Learn more »
comments
print report bad tab
1 comment total.
0 reply
oszkar00 10 Mar 01, 2015 10:44 AM

The second part of Verse/Chorus is:

e|---------------------------------------------------------------------------|
B|---------------------------------------------------------------------------|
G|----------------9--9-9-9-9-9-9---------------------------------------------|
D|-7--7-7-7-7-7-7-9--9-9-9-9-9-9-7--7-7-7-7-7-7-7-7-7-7-7-7-7-7--------------|
A|-7--7-7-7-7-7-7-7--7-7-7-7-7-7-7--7-7-7-7-7-7-7-7-7-7-7-7-7-7--------------|
E|-5--5-5-5-5-5-5----------------5--5-5-5-5-5-5-5-5-5-5-5-5-5-5--------------|
1 2 & 3 & 4 & 1 2 & 3 & 4 & 1 2 & 3 & 4 & 1 & 2 & 3 & 4 &

guest
You may want to rate the tab now too:
select rating
Wanna post a correction for this tab? Suggest correction