Oops, an error
Loading. Please wait.
We have an official Havana Affair tab made by UG professional guitarists. Check out the tab »
×
by Ramones
8,986 views 30 this week
1 commentread comment
1 2 3 4 5
x 6
add to favorites
×
Save as Personal and add changes to this tab that will be seen only by you. Learn more ›
×
You can save this tab as Personal to edit and correct it or add notes. All changes will be seen only by you. Learn more »
launch autoscroll
font size
0
reset
guitar tuner
backing track
0:00
0:00
edit
Autoscroll
slow
fast
+/-
esc
set tempo
stop
Author
-------------------------------------------------------------------------------
			     Havana Affair - Ramones
-------------------------------------------------------------------------------

Tabbed By : Thy Brad
e-mail: thybrad@gmail.com

Tuning: Standard

The other tabs are a bit poor, so I figured I'd drop this one in, see what you think

Intro:
G|---------------------------------------------------------------------------|
D|---------------------------------------------------------------------------|
A|2-2-2-2-5-5----------------------------------------------------------------|
E|-----------5-5-------------------------------------------------------------|

Play that twice

Verse:
G|---------------------------------------------------------------------------|
D|---------------------------------------------------------------------------|
A|2222-----------------------------------------------------------------------|
E|----3333-5555-2222---------------------------------------------------------|

Play that twice

Chorus:
G|---------------------------------------------------------------------------|
D|---------------------------------------------------------------------------|
A|--------------------2222----2222-------------------------------------------|
E|3333-2222-3333-2222-----3222----3222---------------------------------------|

Play that once

Verse

Chorus

Solo:
G|---------------------------------------------------------------------------|
D|---------------------------------------------------------------------------|
A|-222-22222-5-7-------------------------------------------------------------|
E|5--------------------------------------------------------------------------|

Play that twice

Verse

Chorus

Solo, but play the A|5-7 as A|5---7

Verse

Outro Chorus
G|---------------------------------------------------------------------------|
D|---------------------------------------------------------------------------|
A|--------------------2222------2222-----------------------------------------|
E|3333-2222-3333-2222------3222------3-2-2-2---------------------------------|

| /  slide up
| \  slide down
| h  hammer-on
| p  pull-off
| ~  vibrato
| +  harmonic
| x  Mute note
===============================================================================

            
            
Suggest correction
Creating personal tab
Creating personal tab
You can edit any tab online and save it as your Personal.

You can edit, replace or remove any tab part or add personal notes – all changes will be seen only by you.

Personal tabs can be accessed anytime from any device, even offline.
Learn more »
comments
print report bad tab
1 comment total.
-1 reply
screechuzi 10 Sep 16, 2009 02:47 PM

thanks for the tab 100% correct

guest
You may want to rate the tab now too:
select rating
Wanna post a correction for this tab? Suggest correction