Oops, an error
Loading. Please wait.
We have an official Here Today Gone Tomorrow tab made by UG professional guitarists. Check out the tab »
×
by Ramones
3,607 views 1 this week
no commentswrite comment
1 2 3 4 5
x 3
add to favorites
×
Save as Personal and add changes to this tab that will be seen only by you. Learn more ›
×
You can save this tab as Personal to edit and correct it or add notes. All changes will be seen only by you. Learn more »
launch autoscroll
font size
0
reset
how to read this tab
guitar tuner
edit
Autoscroll
slow
fast
+/-
esc
set tempo
stop
-------------------------------------------------------------------------------
Song name: Here Today Gone Tomorrow
Artist: Ramones
Album: Rocket To Russia (1977)
-------------------------------------------------------------------------------

Tabbed by: headbanger_89
Email: xheadbanger_89@yahoo.it

Tuning: STANDARD


:: First verse ::

Oh oh oh, oh oh oh, I love you

e|---------------------------------------------------------------------------|
B|--3--3-3-3-3-3-3-3--3-3-3-3-3-3--------------------------------------------|
G|--2--2-2-2-2-2-2-2--2-2-2-2-2-2--------------------------------------------|
D|--0--0-0-0-0-0-0-0--0-0-0-0-0-0-4--4-4-4-4-4-4-4--4-4-4-4-4-4--------------|
A|--------------------------------4--4-4-4-4-4-4-4--4-4-4-4-4-4--------------|
E|--------------------------------2--2-2-2-2-2-2-2--2-2-2-2-2-2--------------|

Oh oh oh, oh oh oh, I love you, I do, I do...

e|---------------------------------------------------------------------------|
B|--3--3-3-3-3-3-3-3--3-3-3-3-3-3--------------------------------------------|
G|--2--2-2-2-2-2-2-2--2-2-2-2-2-2--------------------------------------------|
D|--0--0-0-0-0-0-0-0--0-0-0-0-0-0-4--4-4-4-4-4-4-2--2-2-2-2-2-2--------------|
A|--------------------------------4--4-4-4-4-4-4-2--2-2-2-2-2-2--------------|
E|--------------------------------2--2-2-2-2-2-2-0--0-0-0-0-0-0--------------|

(X 2)
e|---------------------------------------------------------------------------|
B|-3--3-3-3-3-3-3-3----------------------------------------------------------|
G|-2--2-2-2-2-2-2-2----------------------------------------------------------|
D|-0--0-0-0-0-0-0-0----------------------------------------------------------|
A|---------------------------------------------------------------------------|
E|---------------------------------------------------------------------------|

Oh oh oh, oh oh oh, I love you

e|---------------------------------------------------------------------------|
B|--3--3-3-3-3-3-3-3--3-3-3-3-3-3--------------------------------------------|
G|--2--2-2-2-2-2-2-2--2-2-2-2-2-2--------------------------------------------|
D|--0--0-0-0-0-0-0-0--0-0-0-0-0-0-4--4-4-4-4-4-4-4--4-4-4-4-4-4--------------|
A|--------------------------------4--4-4-4-4-4-4-4--4-4-4-4-4-4--------------|
E|--------------------------------2--2-2-2-2-2-2-2--2-2-2-2-2-2--------------|

Oh oh oh, oh oh oh, I love you, I do, I do...

e|---------------------------------------------------------------------------|
B|--3--3-3-3-3-3-3-3--3-3-3-3-3-3--------------------------------------------|
G|--2--2-2-2-2-2-2-2--2-2-2-2-2-2--------------------------------------------|
D|--0--0-0-0-0-0-0-0--0-0-0-0-0-0-4--4-4-4-4-4-4-2--2-2-2-2-2-2--------------|
A|--------------------------------4--4-4-4-4-4-4-2--2-2-2-2-2-2--------------|
E|--------------------------------2--2-2-2-2-2-2-0--0-0-0-0-0-0--------------|

(X 2)
e|---------------------------------------------------------------------------|
B|--3--3-3-3-3-3-3-3---------------------------------------------------------|
G|--2--2-2-2-2-2-2-2---------------------------------------------------------|
D|--0--0-0-0-0-0-0-0---------------------------------------------------------|
A|---------------------------------------------------------------------------|
E|---------------------------------------------------------------------------|


:: First Chorus ::

But I told you why we just can't make it
I want you still but just can't take it
The time has come we oughta break it

(X 3)
e|---------------------------------------------------------------------------|
B|--3--3-3-------------------------------------------------------------------|
G|--2--2-3-------------------------------------------------------------------|
D|--0--0-0-2--2-2-4--4-4-4-4-4-4---------------------------------------------|
A|---------2--2-2-4--4-4-4-4-4-4---------------------------------------------|
E|---------0--0-0-2--2-2-2-2-2-2---------------------------------------------|

someone has to pay the price

e|---------------------------------------------------------------------------|
B|-----------3---------------------------------------------------------------|
G|-----------2---------------------------------------------------------------|
D|--2--------0---------------------------------------------------------------|
A|--2------------------------------------------------------------------------|
E|--0------------------------------------------------------------------------|


:: Second Verse ::

Oh oh oh, oh oh oh, it's over

e|---------------------------------------------------------------------------|
B|--3--3-3-3-3-3-3-3--3-3-3-3-3-3--------------------------------------------|
G|--2--2-2-2-2-2-2-2--2-2-2-2-2-2--------------------------------------------|
D|--0--0-0-0-0-0-0-0--0-0-0-0-0-0-4--4-4-4-4-4-4-4--4-4-4-4-4-4--------------|
A|--------------------------------4--4-4-4-4-4-4-4--4-4-4-4-4-4--------------|
E|--------------------------------2--2-2-2-2-2-2-2--2-2-2-2-2-2--------------|

Oh oh oh, oh oh oh, all over, it's true, it's true...

e|---------------------------------------------------------------------------|
B|--3--3-3-3-3-3-3-3--3-3-3-3-3-3--------------------------------------------|
G|--2--2-2-2-2-2-2-2--2-2-2-2-2-2--------------------------------------------|
D|--0--0-0-0-0-0-0-0--0-0-0-0-0-0-4--4-4-4-4-4-4-2--2-2-2-2-2-2--------------|
A|--------------------------------4--4-4-4-4-4-4-2--2-2-2-2-2-2--------------|
E|--------------------------------2--2-2-2-2-2-2-0--0-0-0-0-0-0--------------|

(X 2)
e|---------------------------------------------------------------------------|
B|-3--3-3-3-3-3-3-3----------------------------------------------------------|
G|-2--2-2-2-2-2-2-2----------------------------------------------------------|
D|-0--0-0-0-0-0-0-0----------------------------------------------------------|
A|---------------------------------------------------------------------------|
E|---------------------------------------------------------------------------|

Oh oh oh, oh oh oh, it's over

e|---------------------------------------------------------------------------|
B|--3--3-3-3-3-3-3-3--3-3-3-3-3-3--------------------------------------------|
G|--2--2-2-2-2-2-2-2--2-2-2-2-2-2--------------------------------------------|
D|--0--0-0-0-0-0-0-0--0-0-0-0-0-0-4--4-4-4-4-4-4-4--4-4-4-4-4-4--------------|
A|--------------------------------4--4-4-4-4-4-4-4--4-4-4-4-4-4--------------|
E|--------------------------------2--2-2-2-2-2-2-2--2-2-2-2-2-2--------------|

Oh oh oh, oh oh oh, all over, it's true, it's true...

e|---------------------------------------------------------------------------|
B|--3--3-3-3-3-3-3-3--3-3-3-3-3-3--------------------------------------------|
G|--2--2-2-2-2-2-2-2--2-2-2-2-2-2--------------------------------------------|
D|--0--0-0-0-0-0-0-0--0-0-0-0-0-0-4--4-4-4-4-4-4-2--2-2-2-2-2-2--------------|
A|--------------------------------4--4-4-4-4-4-4-2--2-2-2-2-2-2--------------|
E|--------------------------------2--2-2-2-2-2-2-0--0-0-0-0-0-0--------------|

(X 2)
e|---------------------------------------------------------------------------|
B|--3--3-3-3-3-3-3-3---------------------------------------------------------|
G|--2--2-2-2-2-2-2-2---------------------------------------------------------|
D|--0--0-0-0-0-0-0-0---------------------------------------------------------|
A|---------------------------------------------------------------------------|
E|---------------------------------------------------------------------------|


:: Second Chorus ::

And I think of times we were together
As time went on it seemed forever
But times have changed now things are better

(X 3)
e|---------------------------------------------------------------------------|
B|--3--3-3-------------------------------------------------------------------|
G|--2--2-3-------------------------------------------------------------------|
D|--0--0-0-2--2-2-4--4-4-4-4-4-4---------------------------------------------|
A|---------2--2-2-4--4-4-4-4-4-4---------------------------------------------|
E|---------0--0-0-2--2-2-2-2-2-2---------------------------------------------|

Someone had to pay the price

e|---------------------------------------------------------------------------|
B|-----------3---------------------------------------------------------------|
G|-----------2---------------------------------------------------------------|
D|--2--------0---------------------------------------------------------------|
A|--2------------------------------------------------------------------------|
E|--0------------------------------------------------------------------------|


:: Solo ::

    D              D              F5             F5
e|-------2--------------2------------2--------------2------------------------|
B|---------3-----3--------3-----3------2--------------2----------------------|
G|-----2-----2--------2-----2------------------------------------------------|
D|--0----------0---0----------0----------4-----4--------4-----4--------------|
A|-----------------------------------------4--------------4------------------|
E|--------------------------------2----------2---2----------2----------------|

    D              D              F5             E5
e|-------2--------------2------------2--------------0------------------------|
B|---------3-----3--------3-----3------2--------------0----------------------|
G|-----2-----2--------2-----2------------------------------------------------|
D|--0----------0---0----------0----------4-----4--------2-----2--------------|
A|-----------------------------------------4--------------2------------------|
E|--------------------------------2----------2---0----------0----------------|

    D              D
e|-------2--------------2----------------------------------------------------|
B|---------3-----3--------3-----3--------------------------------------------|
G|-----2-----2--------2-----2------------------------------------------------|
D|--0----------0---0----------0----------------------------------------------|
A|---------------------------------------------------------------------------|
E|---------------------------------------------------------------------------|


:: Outro ::

And I think of times we were together
As time went on it seemed forever
But times have changed now things are better

(X 3)
e|---------------------------------------------------------------------------|
B|--3--3-3-------------------------------------------------------------------|
G|--2--2-3-------------------------------------------------------------------|
D|--0--0-0-2--2-2-4--4-4-4-4-4-4---------------------------------------------|
A|---------2--2-2-4--4-4-4-4-4-4---------------------------------------------|
E|---------0--0-0-2--2-2-2-2-2-2---------------------------------------------|

(X 2)
e|---------------------------------------------------------------------------|
B|--3--3-3-------------------------------------------------------------------|
G|--2--2-3-------------------------------------------------------------------|
D|--0--0-0-2--2-2-4--4-4-4-4-4-4---------------------------------------------|
A|---------2--2-2-4--4-4-4-4-4-4---------------------------------------------|
E|---------0--0-0-2--2-2-2-2-2-2---------------------------------------------|

Someone had to pay the price

e|---------------------------------------------------------------------------|
B|-----------3---------------------------------------------------------------|
G|-----------2---------------------------------------------------------------|
D|--2--------0---------------------------------------------------------------|
A|--2------------------------------------------------------------------------|
E|--0------------------------------------------------------------------------|



            
            
Suggest correction
Creating personal tab
Creating personal tab
You can edit any tab online and save it as your Personal.

You can edit, replace or remove any tab part or add personal notes – all changes will be seen only by you.

Personal tabs can be accessed anytime from any device, even offline.
Learn more »
Give kudos to tab author, rate the tab!
1 2 3 4 5
comments
print report bad tab
guest
You may want to rate the tab now too:
select rating
Wanna post a correction for this tab? Suggest correction