Oops, an error
Loading. Please wait.

I Need Your Love bass

by Ramones
746 views 1 this week
no commentswrite comment
1 2 3 4 5
3 more votes to show rating
add to favorites
×
Save as Personal and add changes to this tab that will be seen only by you. Learn more ›
×
You can save this tab as Personal to edit and correct it or add notes. All changes will be seen only by you. Learn more »
launch autoscroll
font size
0
reset
guitar tuner
edit
Autoscroll
slow
fast
+/-
esc
set tempo
stop
Intro                           x3
G---------------------------------|---------------------------------|
D-3-3-3-3-3-3-3-3-0-0-0-0-0-0-0-0-|---------------------------------|
A---------------------------------|-2/3-3-3-2/3-3-3-2/3-3-3-3-3-3-3-|
E---------------------------------|---------------------------------|

Verse                           x3
G---------------------------------|---------------------------------|
D---------------------------------|---------------------------------|
A---------------------------------|-2/3-3-3-2/3-3-3-2/3-3-3-3-3-3-3-|
E-1-1-1-1-1-1-1-1-3-3-3-3-3-3-3-3-|---------------------------------|

Solo
G-----------------------------------------------------------------|
D-----------------------------------------------------------------|
A---------------------------------1-1-1-1-1-1-1-1-3-3-3-3-3-3-3-3-|
E-1-1-1-1-1-1-1-1-3-3-3-3-3-3-3-3---------------------------------|

Now depending on what you prefer you can play the verse or intro as the chorus. The 
is just the octive up which i think sounds better to play because of the back up vocals

Chorus   (Intro)                x3
G---------------------------------|---------------------------------|
D-3-3-3-3-3-3-3-3-0-0-0-0-0-0-0-0-|---------------------------------|
A---------------------------------|-2/3-3-3-2/3-3-3-2/3-3-3-3-3-3-3-|
E---------------------------------|---------------------------------|

Chorus (Verse)                  x3
G---------------------------------|---------------------------------|
D---------------------------------|---------------------------------|
A---------------------------------|-2/3-3-3-2/3-3-3-2/3-3-3-3-3-3-3-|
E-1-1-1-1-1-1-1-1-3-3-3-3-3-3-3-3-|---------------------------------|


Listen for Order
****************************************************************************

            
            
Suggest correction
Creating personal tab
Creating personal tab
You can edit any tab online and save it as your Personal.

You can edit, replace or remove any tab part or add personal notes – all changes will be seen only by you.

Personal tabs can be accessed anytime from any device, even offline.
Learn more »
Give kudos to tab author, rate the tab!
1 2 3 4 5
comments
print report bad tab
guest
You may want to rate the tab now too:
select rating
Wanna post a correction for this tab? Suggest correction