Oops, an error
Loading. Please wait.
We have an official I Wanna Be Sedated tab made by UG professional guitarists. Check out the tab »
×
by Ramones
46 views 1 this week
no commentswrite comment
1 2 3 4 5
3 more votes to show rating
add to favorites
×
Save as Personal and add changes to this tab that will be seen only by you. Learn more ›
×
You can save this tab as Personal to edit and correct it or add notes. All changes will be seen only by you. Learn more »
launch autoscroll
font size
0
reset
guitar tuner
backing track
0:00
0:00
edit
Autoscroll
slow
fast
+/-
esc
set tempo
stop
About this tab version
Based on the master track. Was this info helpful? Yes No
Artist: Ramones
Song: I Wanna Be Sedated
Album: Road to Ruin

[Intro] 
(0:00)
     E   E  E  E  E  E  E  E     E  E  E  E  E  E  E  E     E   E  E  E  E  E  E  E   
G|---------------------------|--------------------------|---------------------------|
D|---------------------------|--------------------------|---------------------------|
A|--6h--7--7--7--7--7--7--7--|--7--7--7--7--7--7--7--7--|--6h--7--7--7--7--7--7--7--|
E|---------------------------|--------------------------|---------------------------|

                             [Verse] (0:06)       
    E  E  E  E  E  E  E  E     E  E  E  E  E  E  E  E     E  E  E  E  E  E  E  E     E  E  E  E  E  E  E  E   
G|--------------------------|--------------------------|--------------------------|-------------------------|
D|--------------------------|--------------------------|--------------------------|--7--7--7--7--7--7--7--7-|
A|--7--7--7--7--7--7--7--7--|--7--7--7--7--7--7--7--7--|--7--7--7--7--7--7--7--7--|-------------------------|
E|--------------------------|--------------------------|--------------------------|-------------------------|

    E  E  E  E  E  E  E  E     E  E  E  E  E  E  E  E     E  E  E  E  E  E  E  E     E  E  E  E  E  E  E  E   
G|--------------------------|--------------------------|--------------------------|-------------------------|
D|--------------------------|--------------------------|--------------------------|--7--7--7--7--7--7--7--7-|
A|--7--7--7--7--7--7--7--7--|--7--7--7--7--7--7--7--7--|--7--7--7--7--7--7--7--7--|-------------------------|
E|--------------------------|--------------------------|--------------------------|-------------------------|

                            [Chorus] (0:18)
    Q    E  E  E  E  E  E     E  E  E  E  E  E  E  E     E  E  E  E  E  E  E  E     E  E  E  E  E  E  E  E   
G|-------------------------|--------------------------|--------------------------|--------------------------|
D|-------------------------|--9--9--9--9--9--9--9--9--|--------------------------|--9--9--9--9--9--9--9--9--|
A|--7----7--7--7--7--7--7--|--------------------------|--7--7--7--7--7--7--7--7--|--------------------------|
E|-------------------------|--------------------------|--------------------------|--------------------------|

    Q    E  E  E  E  E  E     E  E  E  E  E  E  E  E     Q    E  E  E  E  E  E     Q    E  E  E  E  E  E   
G|-------------------------|--------------------------|-------------------------|-------------------------|
D|-------------------------|--9--9--9--9--9--9--9--9--|-------------------------|--7----7--7--7--7--7--7--|
A|--7----7--7--7--7--7--7--|--------------------------|--7----7--7--7--7--7--7--|-------------------------|
E|-------------------------|--------------------------|-------------------------|-------------------------|

                            [Interlude] (0:30)                                   [Verse] (0:33)
    Q    E  E  E  E  E  E     Q    E  E  E  E  E  E     E  E  E  E  E  E  E  E     E  E  E  E  E  E  E  E   
G|-------------------------|-------------------------|--------------------------|--------------------------|
D|--9----9--9--9--9--9--9--|-------------------------|--------------------------|--------------------------|
A|-------------------------|--7----7--7--7--7--7--7--|--7--7--7--7--7--7--7--7--|--7--7--7--7--7--7--7--7--|
E|-------------------------|-------------------------|--------------------------|--------------------------|

    E  E  E  E  E  E  E  E     E  E  E  E  E  E  E  E     E  E  E  E  E  E  E  E     E  E  E  E  E  E  E  E   
G|--------------------------|--------------------------|--------------------------|-------------------------|
D|--------------------------|--7--7--7--7--7--7--7--7--|--------------------------|-------------------------|
A|--7--7--7--7--7--7--7--7--|--------------------------|--7--7--7--7--7--7--7--7--|--7--7--7--7--7--7--7--7-|
E|--------------------------|--------------------------|--------------------------|-------------------------|

                                                                                 [Chorus] (0:44)
    E  E  E  E  E  E  E  E     Q    E  E  E  E  E  E     Q    E  E  E  E  E  E     Q    E  E  E  E  E  E   
G|--------------------------|-------------------------|-------------------------|-------------------------|
D|--------------------------|--7----7--7--7--7--7--7--|-------------------------|--9----9--9--9--9--9--9--|
A|--7--7--7--7--7--7--7--7--|-------------------------|--7----7--7--7--7--7--7--|-------------------------|
E|--------------------------|-------------------------|-------------------------|-------------------------|

    E  E  E  E  E  E  E  E     E  E  E  E  E  E  E  E     E  E  E  E  E  E  E  E     E  E  E  E  E  E  E  E   
G|--------------------------|--------------------------|--------------------------|-------------------------|
D|--------------------------|--9--9--9--9--9--9--9--9--|--------------------------|--9--9--9--9--9--9--9--9-|
A|--7--7--7--7--7--7--7--7--|--------------------------|--7--7--7--7--7--7--7--7--|-------------------------|
E|--------------------------|--------------------------|--------------------------|-------------------------|

                                                                                 [Bridge] (0:56)
    E  E  E  E  E  E  E  E     Q    E  E  E  E  E  E     Q    E  E  E  E  E  E     E  E  E  E  E  E  E  E   
G|--------------------------|-------------------------|-------------------------|--------------------------|
D|--------------------------|--7----7--7--7--7--7--7--|--9----9--9--9--9--9--9--|--------------------------|
A|--7--7--7--7--7--7--7--7--|-------------------------|-------------------------|--7--7--7--7--7--7--7--7--|
E|--------------------------|-------------------------|-------------------------|--------------------------|

    E  E  E  E  E  E  E  E     E  E  E  E  E  E  E  E     E  E  E  E  E  E  E  E     E  E  E  E  E  E  E  E   
G|--------------------------|--------------------------|--------------------------|-------------------------|
D|--7--7--7--7--7--7--7--7--|--9--9--9--9--9--9--9--9--|--------------------------|-------------------------|
A|--------------------------|--------------------------|--7--7--7--7--7--7--7--7--|--7--7--7--7--7--7--7--7-|
E|--------------------------|--------------------------|--------------------------|-------------------------|

    E  E  E  E  E  E  E  E     E  E  E  E  E  E  E  E     E  E  E  E  E  E  E  E     E   E  E  E  E  E  E  E   
G|--------------------------|--------------------------|--------------------------|--------------------------|
D|--7--7--7--7--7--7--7--7--|--9--9--9--9--9--9--9--9--|--------------------------|--------------------------|
A|--------------------------|--------------------------|--7--7--7--7--7--7--7--7--|--6h--7--7--7--7--7--7--7-|
E|--------------------------|--------------------------|--------------------------|--------------------------|

                             [Verse] (1:11)
    E  E  E  E  E  E  E  E     E  E  E  E  E  E  E  E     E  E  E  E  E  E  E  E     E  E  E  E  E  E  E  E   
G|--------------------------|--------------------------|--------------------------|--------------------------|
D|--------------------------|--------------------------|--------------------------|--9--9--9--9--9--9--9--9--|
A|--7--7--7--7--7--7--7--7--|--9--9--9--9--9--9--9--9--|--9--9--9--9--9--9--9--9--|--------------------------|
E|--------------------------|--------------------------|--------------------------|--------------------------|

    Q    E  E  E  E  E  E     E  E  E  E  E  E  E  E     E  E  E  E  E  E  E  E     Q    E  E  E  E  E  E   
G|-------------------------|--------------------------|--------------------------|-------------------------|
D|-------------------------|--------------------------|--------------------------|--9----9--9--9--9--9--9--|
A|--9----9--9--9--9--9--9--|--9--9--9--9--9--9--9--9--|--9--9--9--9--9--9--9--9--|-------------------------|
E|-------------------------|--------------------------|--------------------------|-------------------------|

                           [Chorus] (1:23)
    Q    E  E  E  E  E  E      Q     E   E   E   E   E   E     Q    E  E  E  E  E  E   
G|-------------------------|--------------------------------|-------------------------|
D|-------------------------|--11----11--11--11--11--11--11--|-------------------------|
A|--9----9--9--9--9--9--9--|--------------------------------|--9----9--9--9--9--9--9--|
E|-------------------------|--------------------------------|-------------------------|

     Q     E   E   E   E   E   E     Q    E  E  E  E  E  E      Q     E   E   E   E   E   E   
G|--------------------------------|-------------------------|--------------------------------|
D|--11----11--11--11--11--11--11--|-------------------------|--11----11--11--11--11--11--11--|
A|--------------------------------|--9----9--9--9--9--9--9--|--------------------------------|
E|--------------------------------|-------------------------|--------------------------------|

    Q    E  E  E  E  E  E     Q    E  E  E  E  E  E      Q     E   E   E   E   E   E   
G|-------------------------|-------------------------|--------------------------------|
D|-------------------------|--9----9--9--9--9--9--9--|--11----11--11--11--11--11--11--|
A|--9----9--9--9--9--9--9--|-------------------------|--------------------------------|
E|-------------------------|-------------------------|--------------------------------|

[Interlude] (1:34)                                      [Verse] (1:37)
    E  E  E  E  E  E  E  E     E  E  E  E  E  E  E  E     E  E  E  E  E  E  E  E     E  E  E  E  E  E  E  E   
G|--------------------------|--------------------------|--------------------------|--------------------------|
D|--------------------------|--------------------------|--------------------------|--------------------------|
A|--9--9--9--9--9--9--9--9--|--9--9--9--9--9--9--9--9--|--9--9--9--9--9--9--9--9--|--9--9--9--9--9--9--9--9--|
E|--------------------------|--------------------------|--------------------------|--------------------------|

    Q    E  E  E  E  E  E     Q    E  E  E  E  E  E     E  E  E  E  E  E  E  E     E  E  E  E  E  E  E  E   
G|-------------------------|-------------------------|--------------------------|--------------------------|
D|--9----9--9--9--9--9--9--|-------------------------|--------------------------|--------------------------|
A|-------------------------|--9----9--9--9--9--9--9--|--9--9--9--9--9--9--9--9--|--9--9--9--9--9--9--9--9--|
E|-------------------------|-------------------------|--------------------------|--------------------------|

                                                      [Chorus] (1:49)
    Q    E  E  E  E  E  E     Q    E  E  E  E  E  E      E   E   E   E   E   E   E   E   
G|-------------------------|-------------------------|----------------------------------|
D|--9----9--9--9--9--9--9--|-------------------------|--11--11--11--11--11--11--11--11--|
A|-------------------------|--9----9--9--9--9--9--9--|----------------------------------|
E|-------------------------|-------------------------|----------------------------------|

    E  E  E  E  E  E  E  E      E   E   E   E   E   E   E   E     Q    E  E  E  E  E  E   
G|--------------------------|----------------------------------|-------------------------|
D|--------------------------|--11--11--11--11--11--11--11--11--|-------------------------|
A|--9--9--9--9--9--9--9--9--|----------------------------------|--9----9--9--9--9--9--9--|
E|--------------------------|----------------------------------|-------------------------|

     Q     E   E   E   E   E   E     Q    E  E  E  E  E  E     Q    E  E  E  E  E  E   
G|--------------------------------|-------------------------|-------------------------|
D|--11----11--11--11--11--11--11--|-------------------------|--9----9--9--9--9--9--9--|
A|--------------------------------|--9----9--9--9--9--9--9--|-------------------------|
E|--------------------------------|-------------------------|-------------------------|

                                     [Outro] (2:01)
     E   E   E   E   E   E   E   E     E  E  E  E  E  E  E  E     E  E  E  E  E  E  E  E   
G|----------------------------------|--------------------------|--------------------------|
D|--11--11--11--11--11--11--11--11--|--------------------------|--9--9--9--9--9--9--9--9--|
A|----------------------------------|--9--9--9--9--9--9--9--9--|--------------------------|
E|----------------------------------|--------------------------|--------------------------|

     E   E   E   E   E   E   E   E     E  E  E  E  E  E  E  E     E  E  E  E  E  E  E  E   
G|----------------------------------|--------------------------|--------------------------|
D|--11--11--11--11--11--11--11--11--|--------------------------|--------------------------|
A|----------------------------------|--9--9--9--9--9--9--9--9--|--9--9--9--9--9--9--9--9--|
E|----------------------------------|--------------------------|--------------------------|

    E  E  E  E  E  E  E  E      E   E   E   E   E   E   E   E     E  E  E  E  E  E  E  E   
G|--------------------------|----------------------------------|--------------------------|
D|--9--9--9--9--9--9--9--9--|--11--11--11--11--11--11--11--11--|--------------------------|
A|--------------------------|----------------------------------|--9--9--9--9--9--9--9--9--|
E|--------------------------|----------------------------------|--------------------------|

    E  E  E  E  E  E  E  E     E  E  E  E  E  E  E  E      E   E   E   E   E   E   E   E   
G|--------------------------|--------------------------|----------------------------------|
D|--------------------------|--9--9--9--9--9--9--9--9--|--11--11--11--11--11--11--11--11--|
A|--9--9--9--9--9--9--9--9--|--------------------------|----------------------------------|
E|--------------------------|--------------------------|----------------------------------|

    E  E  E  E  E  E  E  E     E  E  E  E  E  E  E  E     E  E  E  E  E  E  E  E   
G|--------------------------|--------------------------|--------------------------|
D|--------------------------|--------------------------|--9--9--9--9--9--9--9--9--|
A|--9--9--9--9--9--9--9--9--|--9--9--9--9--9--9--9--9--|--------------------------|
E|--------------------------|--------------------------|--------------------------|

     E   E   E   E   E   E   E   E     W                  
G|----------------------------------|-------------------|
A|--11--11--11--11--11--11--11--11--|-------------------|
D|----------------------------------|--9----------------|
E|----------------------------------|-------------------|


************************************

| h - Hammer-on
| W - whole
| H - half
| Q - quarter
| E - 8th

************************************

            
            
Suggest correction
Creating personal tab
Creating personal tab
You can edit any tab online and save it as your Personal.

You can edit, replace or remove any tab part or add personal notes – all changes will be seen only by you.

Personal tabs can be accessed anytime from any device, even offline.
Learn more »
Give kudos to tab author, rate the tab!
1 2 3 4 5
comments
print report bad tab
guest
You may want to rate the tab now too:
select rating
Wanna post a correction for this tab? Suggest correction