Oops, an error
Loading. Please wait.

Ignorance Is Bliss tab

by Ramones
2,552 views 1 this week
4 commentsread comments
1 2 3 4 5
1 last vote to show rating
add to favorites
×
Save as Personal and add changes to this tab that will be seen only by you. Learn more ›
×
You can save this tab as Personal to edit and correct it or add notes. All changes will be seen only by you. Learn more »
launch autoscroll
font size
0
reset
how to read this tab
guitar tuner
edit
Autoscroll
slow
fast
+/-
esc
set tempo
stop
Author
Unregistered
any shit  DESTINYPUNK@HOTMAIL.COM

IGNORANCE IS BLISS 

intro

e|--------------------------|
B|--------------------------|
G|----------------9--7--9---|
D|----------------9--7--9---| x6
A|----------------7--5--7---|
E|--0-3-5-6-5-3-------------|

pre chorus

e|---------------|
B|---------------|
G|--2--2--2--2---|
D|--2--2--2--2---|
A|--0--0--0--0---|
E|---------------|

chorus

e|-------------------------|
B|-------------------------|
G|---------------7--9--7---|  first part
D|---------------7--9--7---|  x5
A|---------------5--7--5---|
E|--0-3-5-6-5-3------------|

e|------------------------------------------|
B|------------------------------------------|
G|--5--7---------------7--9--7----5--7--4---|
D|--5--7---------------7--9--7----5--7--4---|  second part
A|--3--5---------------5--7--5----3--5--2---|
E|--------0-3-5-6-5-3-----------------------|

Verse

e|--------------------------|
B|--------------------------|
G|----------------9--7--9---|
D|----------------9--7--9---| x6
A|----------------7--5--7---|
E|--0-3-5-6-5-3-------------|

pre chorus

e|---------------|
B|---------------|
G|--2--2--2--2---|
D|--2--2--2--2---|
A|--0--0--0--0---|
E|---------------|

chorus

e|-------------------------|
B|-------------------------|
G|---------------7--9--7---|  first part
D|---------------7--9--7---|  x5
A|---------------5--7--5---|
E|--0-3-5-6-5-3------------|

e|------------------------------------------|
B|------------------------------------------|
G|--5--7---------------7--9--7----5--7--4---|
D|--5--7---------------7--9--7----5--7--4---|  second part
A|--3--5---------------5--7--5----3--5--2---|
E|--------0-3-5-6-5-3-----------------------|

e|--------------------------|
B|--------------------------|
G|----------------9--7--9---|
D|----------------9--7--9---| x2
A|----------------7--5--7---|
E|--0-3-5-6-5-3-------------|

solo

e|--5-5-5-5-5-5-5-5-5-5-5--0-0-0-0-0-0-0-0-0-0-0-0-0-0-0-0-0-0-0--5-5-5-5-5-5-5-5---|
B|--5-5-5-5-5-5-5-5-5-5-5-----------------------------------------5-5-5-5-5-5-5-5---|
G|----------------------------------------------------------------------------------|
D|----------------------------------------------------------------------------------|
A|----------------------------------------------------------------------------------|
E|----------------------------------------------------------------------------------|

e|--2-2-2-2-2-2-2---|
B|--2-2-2-2-2-2-2---|
G|------------------|
D|------------------|
A|------------------|
E|------------------|

then do the intro another chorus but the second part repeat x2 and the end
of the song its the intro but repeat x2

            
            
Suggest correction
Creating personal tab
Creating personal tab
You can edit any tab online and save it as your Personal.

You can edit, replace or remove any tab part or add personal notes – all changes will be seen only by you.

Personal tabs can be accessed anytime from any device, even offline.
Learn more »
Give kudos to tab author, rate the tab!
1 2 3 4 5
comments
print report bad tab
4 comments total. Showing first comments.
+1 reply
i_got_novacain 40 Oct 01, 2005 03:08 AM

what ****ing way did u do this??

0 reply
KilljoyBassist 193 Aug 12, 2013 03:24 AM

I accidentally a guitar tabs, its right, but i think someone needs to learn the general rules of tabbing

0 reply
alfguitar992 30 Jul 12, 2014 08:37 AM

the entire thing is upside down.

guest
Wanna post a correction for this tab? Suggest correction