Oops, an error
Loading. Please wait.
We have an official Pinhead tab made by UG professional guitarists. Check out the tab »
×

Pinhead bass

by Ramones
5,859 views 6 this week
1 commentread comment
1 2 3 4 5
x 7
add to favorites
×
Save as Personal and add changes to this tab that will be seen only by you. Learn more ›
×
You can save this tab as Personal to edit and correct it or add notes. All changes will be seen only by you. Learn more »
launch autoscroll
font size
0
reset
guitar tuner
backing track
0:00
0:00
edit
Autoscroll
slow
fast
+/-
esc
set tempo
stop
Ramones - Pinhead
This song is tabbed by Lexvermazen@hotmail.com

178bpm

Riff 1
G :-----------------:-----------------:
D :-----------------:-----------------:
A :-----------------:-7---9-----------:
E :-7/9-9-9-9-9-9-9-:---------7---9---:

Riff 2
G :-----------------:-----------------:
D :-----------------:-----------------:
A :-----------------:---------5---7---:
E :-5/7-7-7-7-7-7-7-:-5---7-----------:

Riff 3
G :-----------------:
D :-----------------:
A :-----------------:
E :-7-7-7-7-7-7-7-7-:

Riff 4
G :-----------------:-----------------:
D :-----------------:-----------------:
A :---------------5-:-0-0-0-0-0-0-0-9-:
E :-7-7-7-7-7-7-7---:-----------------:

This is how it's played:

Intro: Drums only
	Riff 1   4x
	Riff 2	 4x   
	Riff 3   2x
	Riff 1   4x
	Riff 2	 4x     
	Riff 3   2x
	Riff 1   4x
	Riff 4   2x
       Drums only       
	Riff 2	
       Drums only       
	Riff 2 
	Riff 3   2x
	Riff 1   4x
	Riff 2	 4x     
	Riff 3   2x
	Riff 1   4x
Outr:   Riff 4   Repeat and fade verse 4

            
            
Suggest correction
Creating personal tab
Creating personal tab
You can edit any tab online and save it as your Personal.

You can edit, replace or remove any tab part or add personal notes – all changes will be seen only by you.

Personal tabs can be accessed anytime from any device, even offline.
Learn more »
comments
print report bad tab
1 comment total.
0 reply
punkbass479 270 Oct 08, 2006 09:05 PM

riffs 3 and 4 are off

riff 3 should be:
G|------------------|
D|------------------|
A|-7777777777777777-|
E|------------------|

and riff 4 should be:
G|-----------------|
D|-----------------|
A|-22222-5---------|
E|---------55555-3-|

but not too bad

guest
Wanna post a correction for this tab? Suggest correction