Oops, an error
Loading. Please wait.
We have an official Poison Heart tab made by UG professional guitarists. Check out the tab »
×
by Ramones
4,542 views 12 this week
2 commentsread comments
1 2 3 4 5
x 6
add to favorites
×
Save as Personal and add changes to this tab that will be seen only by you. Learn more ›
×
You can save this tab as Personal to edit and correct it or add notes. All changes will be seen only by you. Learn more »
launch autoscroll
font size
0
reset
guitar tuner
backing track
0:00
0:00
edit
Autoscroll
slow
fast
+/-
esc
set tempo
stop
Author
Unregistered
Song:Poison Heart
Artist:The Ramones
Tabbed by: Esteban herco
Submitted by: Samuele Silveravalle
I don't know why it was erased before but i'm completly sure it is perfect

Intro:     
G|------------------------------------|      
D|------------------------------------|      
A|--4-44444-2-22222--4-44444-2-22222--|      
E|------------------------------------|      

G|------------------------------------|      
D|------------------------------------|      
A|--4-44444-2-22222-------------------|      
E|------------------555555555---------| 

Verse:     
G|--------------------------------|           
D|--------------------------------|          
A|--444444-777777--444444-777777--|          
E|--------------------------------|                                                    

G|----------------------------------|   
D|----------------------------------|        
A|--444444-777777-------------------|        
E|------------------555555-777777---|     

Chorus:     
G|-------------------------------------|      
D|-------------------------------------|      
A|-----------------444444--------------|      
E|--555555-7-77777--------5-55555------|     

G|---------------------------------------------------|      
D|---------------------------------------------------|      
A|-----------------4-44444-2-22222--4-44444-2-22222--|      
E|--555555-7-77777-----------------------------------| 

Verse x2
G|--------------------------------|           
D|--------------------------------|          
A|--444444-777777--444444-777777--|          
E|--------------------------------|                                                    

G|----------------------------------|   
D|----------------------------------|        
A|--444444-777777-------------------|        
E|------------------555555-777777---|     

Chorus x3(repeat last part)("a poison heart...")
G|-------------------------------------|      
D|-------------------------------------|      
A|-----------------444444--------------|      
E|--555555-7-77777--------5-55555------|     

G|---------------------------------------------------|      
D|---------------------------------------------------|      
A|-----------------4-44444-2-22222--4-44444-2-22222--|      
E|--555555-7-77777-----------------------------------| 

Outro:     

G|---------------------------------------|      
D|---------------------------------------|      
A|--4-44444-2-22222--------------2--4~---|      
E|------------------55555555555----------|

            
            
Suggest correction
Creating personal tab
Creating personal tab
You can edit any tab online and save it as your Personal.

You can edit, replace or remove any tab part or add personal notes – all changes will be seen only by you.

Personal tabs can be accessed anytime from any device, even offline.
Learn more »
comments
print report bad tab
2 comments total.
0 reply
Gustavo02 403 Feb 21, 2010 07:05 AM

nice tab, the main notes are correct but it is missing the bridge of the song, where the notes would be
E |0---------||5----------|

0 reply
Xx__piri__xX 10 Feb 03, 2011 07:04 AM

Good work man but i sure that the missing bridge its like this

A |77777777|----------| 
E |--------|55555555--|


awesome tabs dude

guest
Wanna post a correction for this tab? Suggest correction