Oops, an error
Loading. Please wait.

The Crusher bass

version 2
version 2

Whole song

Interactive

by Ramones
501 views 1 this week
no commentswrite comment
1 2 3 4 5
1 last vote to show rating
add to favorites
×
Save as Personal and add changes to this tab that will be seen only by you. Learn more ›
×
You can save this tab as Personal to edit and correct it or add notes. All changes will be seen only by you. Learn more »
launch autoscroll
font size
0
reset
guitar tuner
edit
Autoscroll
slow
fast
+/-
esc
set tempo
stop
Author
THE RAMONES - THE CRUSHER
ADIOS AMIGOS: 1996
TABBED BY: JÖSH DRUMMER
TUNING: STANDARD E.A.D.G.



INTRO: X2

G:|-------------------------------------|
D:|-------------------------------------|
A:|7-777777-10-9------------------------|
E:|--------------10-9-8-888888-5-555555-|



VERSE: X2

G:|-------------------------------------|
D:|-------------------------------------|
A:|7-777777-10-9------------------------|
E:|--------------10-9-8-888888-5-555555-|



PRE-CHORUS: X1

G:|-----------------------------------|
D:|-----------------------------------|
A:|-----------------5-555555----------|
E:|7-77777777777777----------5-555555-|


G:|----------------------------------|
D:|----------------------------------|
A:|-----------------5-55555555555555-|
E:|7-77777777777777------------------|



CHORUS: X4

G:|-------------------------------------|
D:|-------------------------------------|
A:|7-777777-10-9------------------------|
E:|--------------10-9-8-888888-5-555555-|



VERSE: X2

G:|-------------------------------------|
D:|-------------------------------------|
A:|7-777777-10-9------------------------|
E:|--------------10-9-8-888888-5-555555-|



PRE-CHORUS: X1

G:|-----------------------------------|
D:|-----------------------------------|
A:|-----------------5-555555----------|
E:|7-77777777777777----------5-555555-|


G:|----------------------------------|
D:|----------------------------------|
A:|-----------------5-55555555555555-|
E:|7-77777777777777------------------|



CHORUS: X4

G:|-------------------------------------|
D:|-------------------------------------|
A:|7-777777-10-9------------------------|
E:|--------------10-9-8-888888-5-555555-|



BRIDGE: X2

G:|-------------------------------------|
D:|-------------------------------------|
A:|7-777777-10-9------------------------|
E:|--------------10-9-8-888888-5-555555-|



VERSE: X4

G:|-------------------------------------|
D:|-------------------------------------|
A:|7-777777-10-9------------------------|
E:|--------------10-9-8-888888-5-555555-|



PRE-CHORUS: X1

G:|-----------------------------------|
D:|-----------------------------------|
A:|-----------------5-555555----------|
E:|7-77777777777777----------5-555555-|


G:|----------------------------------|
D:|----------------------------------|
A:|-----------------5-55555555555555-|
E:|7-77777777777777------------------|



CHORUS: X6

G:|-------------------------------------|
D:|-------------------------------------|
A:|7-777777-10-9------------------------|
E:|--------------10-9-8-888888-5-555555-|



END ON:


G:|--|
D:|--|
A:|--|
E:|0-|



STRUCTURE:

INTRO: X2
VERSE: X2
PRE-CHORUS: X1
CHORUS: X4
VERSE: X2
PRE-CHORUS: X1
CHORUS: X4
BRIDGE. X2
VERSE: X4
PRE-CHORUS: X1
CHORUS: X6



OI! OI! IF YER A DIE HARD FAN OF EVERYTHIN IN THE WORLD OF THE RAMONES YOU'LL KNOW WHERE
THIS SONG COMES FROM. FOR THOSE THAT DONT DEE DEE RAMONE
LEFT THE RAMONES AS THEY WERE RECORDIN 'BRAIN DRAIN' IN 1989 & BEGAN HIS VERY BRIEF RAP
CAREER UNDER THE NAME 'DEE DEE KING' & RELEASED 'STANDING IN THE SPOTLIGHT' THAT SAME
YEAR. 1 OF THE 10 TRACKS FEATURED WAS THIS SONG 'THE CRUSHER' WHICH WAS RE-RECORDED FOR 
'ADIOS AMIGOS' THE ONLY DIFFERENCE BETWEEN THIS VERSION & DEE DEE KINGS IS THERE'S AN EXTRA
VERSE BEFORE THE LAST CHORUS ON 'STANDING IN THE SPOTLIGHT' IF YOU HAVNT HEARD 'STANDING 
IN THE SPOTLIGHT' THEN GO GET IT, SOME OF THE LYRICS ARE AS GOOD AS MY SPELLIN! HAHAHA. 
STAY FREE.

            
            
Suggest correction
Creating personal tab
Creating personal tab
You can edit any tab online and save it as your Personal.

You can edit, replace or remove any tab part or add personal notes – all changes will be seen only by you.

Personal tabs can be accessed anytime from any device, even offline.
Learn more »
Give kudos to tab author, rate the tab!
1 2 3 4 5
comments
print report bad tab
guest
You may want to rate the tab now too:
select rating
Wanna post a correction for this tab? Suggest correction