Oops, an error
Loading. Please wait.

Fall Back Down bass

version 5
version 5

Whole song

Interactive

by Rancid
19 views 1 this week
no commentswrite comment
1 2 3 4 5
3 more votes to show rating
add to favorites
×
Save as Personal and add changes to this tab that will be seen only by you. Learn more ›
×
You can save this tab as Personal to edit and correct it or add notes. All changes will be seen only by you. Learn more »
launch autoscroll
font size
0
reset
guitar tuner
edit
Autoscroll
slow
fast
+/-
esc
set tempo
stop
About this tab version
Includes all fills and variations. Arranged for autoscroll. Was this info helpful? Yes No
https://www.youtube.com/watch?v=ewiurtlDVLY

[Intro]
G|-----------------|-----------------|-----------------|-----------------|
D|-----------------|-----------------|-----------------|-----------------|
A|-----------------|-----------------|-----------------|-----------------|
E|-----------------|-----------------|-----------------|-----------------|

G|-----------------|-----------------|-----------------|-----------------|
D|-----------------|-----------------|-----------------|-------------2---|
A|-----------------|-----------------|-----------------|---------2h4---4-|
E|-----------------|-----------------|-----------------|-----------------|

G|-----------------|-----------------|-----------------|-----------------|
D|-2-----------3---|-4---------------|-----------------|-2-----------2---|
A|-----------------|-----------------|-0---------------|---------2h4---4-|
E|-----------------|-----------------|-----------------|-----------------|

G|-----------------|-----------------|-----------------|-----------------|
D|-2-----------3---|-4---------------|-----------------|-2-----------2---|
A|-----------------|-----------------|-0---------------|---------2h4---4-|
E|-----------------|-----------------|-----------------|-----------------|

[Verse]
G|-----------------|-----------------|-----------------|-----------------|
D|-2---2-2---2-2-2-|-2-2-2-2-2-2-3---|-4---4-4---4-4-4-|-4-4-4-4-4-4-2---|
A|-----------------|-----------------|-----------------|---------------4-|
E|-----------------|-----------------|-----------------|-----------------|

G|-----------------|-----------------|-----------------|-----------------|
D|-----------------|-----------------|-2---2-2---2-2-2-|-2-2-2-2-2-------|
A|-0---0-0---0-0-0-|-0-0-0-0-0-0-2-4-|-----------------|-----------4-2-4-|
E|-----------------|-----------------|-----------------|-----------------|

G|-----------------|-----------------|-----------------|-----------------|
D|-2---2-2---2-2-2-|-2-2-2-2-2-2-3---|-4---4-4---4-4-4-|-4-4-4-4-4-4-2---|
A|-----------------|-----------------|-----------------|---------------4-|
E|-----------------|-----------------|-----------------|-----------------|

G|-----------------|-----------2-2h3-|
D|-----------------|-----------------|
A|-0---0-0---0-0-0-|-0-0-0-0-0-------|
E|-----------------|-----------------|

[Pre-Chorus]
G|-4---4---4---2-2-|-2-2-2-2-2-2-2-2-|-4---4-4-2---2-2-|-1---1-1---------|
D|-----------------|-----------------|-----------------|---------4---4---|
A|-----------------|-----------------|-----------------|-----------------|
E|-----------------|-----------------|-----------------|-----------------|

[Chorus]
G|-----------------|-----------------|-----------------|-----------------|
D|-2---2-2---2-3---|-4-4-4-4-4-4-4-4-|-----------------|-2---2-2-2-------|
A|-----------------|-----------------|-0---0-0---0-0---|-----------4-2h4-|
E|-----------------|-----------------|-----------------|-----------------|

G|-----------------|-----------------|-----------------|-----------------|
D|-2---2-2---2-3---|-4-4-4-4-4-4-4-4-|-----------------|-2---2-------2---|
A|-----------------|-----------------|-0---0-0---0-0---|---------2h4---4-|
E|-----------------|-----------------|-----------------|-----------------|

G|-----------------|-----------------|-----------------|-----------------|
D|-2---2-2---2-3---|-4-4-4-4-4-4-4-4-|-----------------|-2-2-2---2-------|
A|-----------------|-----------------|-0---0-0---0-0---|-----------4-2h4-|
E|-----------------|-----------------|-----------------|-----------------|

G|-----------------|-----------------|-----------------|-----------------|
D|-2---2-2---2-3---|-4-4-4-4-4-4-4-4-|-----------------|-2-2-2-2-2-------|
A|-----------------|-----------------|-0---0-0---0-0---|-----------0-2h3-|
E|-----------------|-----------------|-----------------|-----------------|

[Bridge]
G|-----------------|-----------------|-----------------|-----------0-2-3-|
D|-----------------|-----------------|-2---2-2---2-2-2-|-2-2-2-2-2-------|
A|-4---4-4---4-4-4-|-4-4-4-4-4-4-4-r-|-----------------|-----------------|
E|-----------------|-----------------|-----------------|-----------------|

G|-4---4-4---4-4-4-|-4-4-4-4-4-4-3---|-2-2-4-4-6-6-4-4-|-2-2-------------|
D|-----------------|-----------------|-----------------|-----4-4-2-2-----|
A|-----------------|-----------------|-----------------|-------------4-2-|
E|-----------------|-----------------|-----------------|-----------------|

G|-----------------|-----------------|-----------------|-----------0-2-3-|
D|-----------------|-----------------|-2---2-2---2-2-2-|-2-2-2-2-2-------|
A|-4---4-4-4-4-4---|-4-4-4-4-4-4-4-r-|-----------------|-----------------|
E|-----------------|-----------------|-----------------|-----------------|

G|-4---4-4---4-4---|-4-4-4-4-4-4-3---|-2-2-4-4-6-6-4-4-|-2-2-------------|
D|-----------------|-----------------|-----------------|-----4-4-2-2-----|
A|-----------------|-----------------|-----------------|-------------4-2-|
E|-----------------|-----------------|-----------------|-----------------|

[Solo]
G|-----------------|-----------------|-----------------|-----------------|
D|-2---2-2---2-3---|-4---4-4---4-4---|-----------------|-2-2-2-2-----2---|
A|-----------------|-----------------|-0---0-0---0-0---|---------2h4---4-|
E|-----------------|-----------------|-----------------|-----------------|

G|-----------------|-----------------|-----------------|-----------------|
D|-2---2-2---2-3---|-4---4-4---4-4---|-----------------|-2-2-2-2-----2---|
A|-----------------|-----------------|-0---0-0---0-0---|---------2h4---4-|
E|-----------------|-----------------|-----------------|-----------------|

G|-----------------|-----------------|-----------------|-----------------|
D|-2---2-2---2-3---|-4---4-4---4-4---|-----------------|-2-2-2-2-----2---|
A|-----------------|-----------------|-0---0-0---0-0---|---------2h4---4-|
E|-----------------|-----------------|-----------------|-----------------|

G|-----------------|-----------------|-----------------|-----------------|
D|-2---2-2---2-3---|-4---4-4---4-4---|-----------------|-2-2-2-2-----2---|
A|-----------------|-----------------|-0---0-0---0-0---|---------2h4---4-|
E|-----------------|-----------------|-----------------|-----------------|

[Verse 2]
G|-----------------|-----------------|-----------------|-----------------|
D|-2---2-2---2-2-2-|-2-2-2-2-2-2-3---|-4---4-4---4-4-4-|-4-4-4-4-4-4-2---|
A|-----------------|-----------------|-----------------|---------------4-|
E|-----------------|-----------------|-----------------|-----------------|

G|-----------------|-----------------|-----------------|-----------------|
D|-----------------|-----------------|-2---2-2---2-2-2-|-2-2-2-2-2-------|
A|-0---0-0---0-0-0-|-0-0-0-0-0-0-0-2-|-----------------|-----------4-2h4-|
E|-----------------|-----------------|-----------------|-----------------|

G|-----------------|-----------------|-----------------|-----------------|
D|-2---2-2---2-2-2-|-2-2-2-2-2-2-3---|-4---4-4---4-4-4-|-4-4-4-4-4-4-2---|
A|-----------------|-----------------|-----------------|---------------4-|
E|-----------------|-----------------|-----------------|-----------------|

G|-----------------|-----------0-2h3-|
D|-----------------|-----------------|
A|-0---0-0---0-0-0-|-0-0-0-0-0-------|
E|-----------------|-----------------|

[Pre-Chorus 2]
G|-4---4---2---2-2-|-2-2-2-2-2-2-2-2-|-4---4-4-2---2-2-|-1---1-1---------|
D|-----------------|-----------------|-----------------|---------4---4-4-|
A|-----------------|-----------------|-----------------|-----------------|
E|-----------------|-----------------|-----------------|-----------------|

[Chorus 2]
G|-----------------|-----------------|-----------------|-----------------|
D|-2---2-2-2-2-3---|-4-4-4-4-4-4-4-4-|-----------------|-2-2-2---2-------|
A|-----------------|-----------------|-0---0-0---0-0---|-----------4-2h4-|
E|-----------------|-----------------|-----------------|-----------------|

G|-----------------|-----------------|-----------------|-----------------|
D|-2---2-2---2-3---|-4-4-4-4-4-4-4-4-|-----------------|-2-2-2-------2---|
A|-----------------|-----------------|-0---0-0---0-0---|---------2h4---4-|
E|-----------------|-----------------|-----------------|-----------------|

G|-----------------|-----------------|-----------------|-----------------|
D|-2---2-2---2-3---|-4-4-4-4-4-4-4-4-|-----------------|-2-2-2---2-------|
A|-----------------|-----------------|-0---0-0---0-0---|-----------4-2h4-|
E|-----------------|-----------------|-----------------|-----------------|

G|-----------------|-----------------|-----------------|-----------------|
D|-2---2-2---2-3---|-4---4---4-4-4-4-|-----------------|-2-2-2---2-------|
A|-----------------|-----------------|-0---0-0---0-0---|-----------0-2h3-|
E|-----------------|-----------------|-----------------|-----------------|

[Solo 2]
G|-----------------|-----------------|-----------------|-----------0-2-3-|
D|-----------------|-----------------|-2---2-2-2-2-2-2-|-2-2-2-2-2-------|
A|-4---4-4---4-4-4-|-4-4-4-4-4-4-4-r-|-----------------|-----------------|
E|-----------------|-----------------|-----------------|-----------------|

G|-4---4-4-4-4-4-4-|-4-4-4-4-4-4-3---|-2-2-4-4-6-6-4-4-|-2-2-------------|
D|-----------------|-----------------|-----------------|-----4-4-2\1-----|
A|-----------------|-----------------|-----------------|-------------4-2-|
E|-----------------|-----------------|-----------------|-----------------|

G|-----------------|-----------------|-----------------|-----------0-2-3-|
D|-----------------|-----------------|-2---2-2---2-2-2-|-2-2-2-2-2-------|
A|-4---4-4-4-4-4---|-4-4-4-4-4-4-4-r-|-----------------|-----------------|
E|-----------------|-----------------|-----------------|-----------------|

G|-4---4-4---4-4-4-|-4-4-4-4-4-4-3---|-2-2-4-4-6-6-4-4-|-2-2-------------|
D|-----------------|-----------------|-----------------|-----4-4-2-------|
A|-----------------|-----------------|-----------------|-----------4-2---|
E|-----------------|-----------------|-----------------|-----------------|

[Chorus 3]
G|-----------------|-----------------|-----------------|-----------------|
D|-2---2-----------|-4---4-----------|-----------------|-2---2-------2---|
A|-----------------|-----------------|-0---0-----------|---------2h4---4-|
E|-----------------|-----------------|-----------------|-----------------|

G|-----------------|-----------------|-----------------|-----------------|
D|-2---2-----------|-4---4-----------|-----------------|-2---2-------2---|
A|-----------------|-----------------|-0---0-----------|---------2h4---4-|
E|-----------------|-----------------|-----------------|-----------------|

G|-----------------|-----------------|-----------------|-----------------|
D|-2---2-2---2-3---|-4-4-4-4-4-4-4-4-|-----------------|-2-2-2---2-------|
A|-----------------|-----------------|-0---0-0---0-0---|-----------4-2h4-|
E|-----------------|-----------------|-----------------|-----------------|

G|-----------------|-----------------|-------------2-4-|/6-4-r-2-2-------|
D|-2---2-2---2-3---|-4-4-4-4-4-4-4-4-|---------2-4-----|-----------4-2---|
A|-----------------|-----------------|-0-2h4-----------|---------------4-|
E|-----------------|-----------------|-----------------|-----------------|

G|-----------------|-----------------|-----------------|-----------------|
D|-2---2-2---2-3---|-4-4-4---4-4-4---|-----------------|-2-2-2---2-------|
A|-----------------|-----------------|-0---0-0---0-0---|-----------4-2h4-|
E|-----------------|-----------------|-----------------|-----------------|

G|-----------------|-----------------|-----------------|-----------------|
D|-2---2-2---2-3---|-4-4-4---4-4-4---|-----------------|-2-2-2---2-------|
A|-----------------|-----------------|-0---0-0---0-0---|-----------4-2h4-|
E|-----------------|-----------------|-----------------|-----------------|

G|-----------------|-----------------|-----------------|-----------------|
D|-2---2-2---2-3---|-4-4-4---4-4-4---|-----------------|-2-2-2---2-------|
A|-----------------|-----------------|-0---0-0---0-0---|-----------4-2h4-|
E|-----------------|-----------------|-----------------|-----------------|

G|-----------------|-----------------|-----------2-4-2-|/6-4-2-4-2-------|
D|-2---2-2---2-3---|-4-4-4---4-4-4---|-------2-4-------|-----------4-2---|
A|-----------------|-----------------|-0-2-4-----------|---------------4-|
E|-----------------|-----------------|-----------------|-----------------|

[Outro]
G|-----------------|-----------------|-----------------|-----------------|
D|-2---2-2---2-3---|-4-4-4---4-4-4---|-----------------|-2-2-2---2-------|
A|-----------------|-----------------|-0---0-0---0-0---|-----------4-2h4-|
E|-----------------|-----------------|-----------------|-----------------|

G|-----------------|-----------------|-----------------|-----------------|
D|-2---2-2---2-3---|-4-4-4-4-4-4-4---|-----------------|-2-2-2---2-------|
A|-----------------|-----------------|-0---0-0---0-0---|-----------4-2h4-|
E|-----------------|-----------------|-----------------|-----------------|

G|-----------------|-----------------|-----------------|-----------------|
D|-2---2-2---2-3---|-4-4-4---4-4-4---|-----------------|-2-2-2-------2---|
A|-----------------|-----------------|-0---0-0---0-0---|---------2h4---4-|
E|-----------------|-----------------|-----------------|-----------------|

G|-----------------|-----------------|/6-4-2-4-2---2---|-----------------|
D|-2---2-2-2-2-3---|-4---4---4-4-4---|-----------4---4-|-2---2h4-2-------|
A|-----------------|-----------------|-----------------|---4-------4-2-4-|
E|-----------------|-----------------|-----------------|-----------------|

G|-----------------|-----------------|-----------------|-----------------|
D|-2---------------|-----------------|-----------------|-----------------|
A|-----------------|-----------------|-----------------|-----------------|
E|-----------------|-----------------|-----------------|-----------------|


************************************

| h   Hammer-on
| r   Rest
| /   Slide up
| \   Slide down

************************************

            
            
Suggest correction
Creating personal tab
Creating personal tab
You can edit any tab online and save it as your Personal.

You can edit, replace or remove any tab part or add personal notes – all changes will be seen only by you.

Personal tabs can be accessed anytime from any device, even offline.
Learn more »
Give kudos to tab author, rate the tab!
1 2 3 4 5
comments
print report bad tab
guest
You may want to rate the tab now too:
select rating
Wanna post a correction for this tab? Suggest correction